PrimaNota.ru - самый крупный в мире бесплатный архив песенных текстов, аккордов, табулатур и нот


American Authors - Believer - аккорды и текст, таба, видео

Регистрация Запомнить меня
Войти через:  Facebook Google Twitter Vk Yandex Mail.ru

American Authors - Believer - аккорды и текст, таба, видео

Печатать
Просмотров: 487
Авторы: Matt Sanchez, James Adam Shelley, Zac Barnett, Dave Rublin, Shep Goodman, Aaron Accetta

Believer
American Authors
Believer by American Authors

Capo on 1st fret

     Singing Pattern if you wanted it
e|-------------------------|-------------------------|
B|-------------------------|-------------------------|
G|-------------------0-----|-------------------------|
D|--2---2-2---2---0-----2--|--2---2-2---2---0-----0--|
A|-------------------------|-------------------3-----|
E|-------------------------|-------------------------|

e|-------------------------|-------------------------|
B|-------------------------|-------------------------|
G|-------------------0-----|--2--2--2--2--2--0--0----|
D|--2---2-2---2---0-----2--|-------------------------|
A|-------------------------|-------------------------|
E|-------------------------|-------------------------|



C
Im just a believer
C
That things will get better
Am
Some can take it or leave it
F
But I dont wanna let it go

C
Im just a believer
C
That things will get better
Am
Some can take it or leave it
F
But I dont wanna let it go

C
Im a little bit sheltered
C
Im a little bit scared
Am
Im a little bit nervous
F
Im goin no where
C
Im a little bit jealous
C
Im a little bit slow
Am
Im a little bit hurtful 
F
And I dont wanna let it go

C (play for next two measures)

Am
No…
F
And I dont wanna let it go

C
Im a little bit angry 
C
When every ones around
Am
But I get a little lonely
F
When no ones out

Am        G
I feel my demons
F          F
Misleadin me

C
Im just a believer
C
That things will get better
Am
Some can take it or leave it 
F
But I dont wanna let it go

C
Im just a believer
C
That things will get better
Am
Some can take it or leave it
F
But I dont wanna let it go

C
Maybe when I get older
C
And Im in the ground
Am
The weights off my shoulders 
F
It was bringin me down
C
Ive never been that lucky 
C
Ive never tasted fame
Am
Im always lookin for something
F
But I hate changin

Am
Time fades
        G
Theres no space
    F              F
As life breaks new ground

C
Im just a believer
C
That things will get better
Am
Some can take it or leave it 
F
But I dont wanna let it go

C
Im just a believer
C
That things will get better
Am
Some can take it or leave it
F
But I dont wanna let it go

C                         Am
It doesnt matter what is out there
                           C  
My head is spinning and it wont bail out
                          Am
It doesnt matter what is out there

Am
Cause time fades
G
Theres no space                              
Добавлено: 09.03.2014
Другие материалы по этой песне:
  • Аккорды и текст

Страница создана 20.08.2013
http://primanota.ru/american-authors/believer-chords.htm
Привет, Гость.
Предлагаем пройти революционный курс по гитаре.
Подарок от PrimaNota.Ru, забирай!