PrimaNota.ru - самый крупный в мире бесплатный архив песенных текстов, аккордов, табулатур и нот


Alt-j - Fitzpleasure - таба, бас-таба, видео

Регистрация Запомнить меня
Войти через:  Facebook Google Twitter Vk Yandex Mail.ru

Alt-j - Fitzpleasure - таба, бас-таба, видео

Печатать
Просмотров: 801
Авторы: Gus Unger-Hamilton, Thom Green, Joe Newman, Gwil Sainsbury

-------------------------------------------------------------------------------
                            Alt-J - Fitzpleasure
-------------------------------------------------------------------------------
Tabbed by: Me
E-mail:

Tuning: Open D (DADF#AD)

One of the coolest songs on the album. Like most of their songs, the guitar
is tuned to Open D. This is my interpretation of Joe's guitar parts and some
of Gwil's.
Please leave a comment if you disagree with some parts!

0:51
D |-----------------9----7--5---10---10---9----0----0----0-------------------|
A |-10---10---9-----------------10---10---10---10---9----9-------------------|
F#|-10---10---10-------------------------------------------------------------|
D |--------------------------------------------------------------------------|
A |--------------------------------------------------------------------------|
D |-10---9----0-----5----5--5---10---9---------------------------------------|

D |----0----------0---------0---------0---------0--------0--------9~-9-7-5-0-|
A |------10---------10--------10--------10--------9--------9-----------------|
F#|---------10---------10--------10--------10-------10-------10--------------|
D |--------------------------------------------------------------------------|
A |--------------------------------------------------------------------------|
D |-10---------10---------9---------9---------0--------0----------5~---------|

D |-10----10----10----10----10----10----10----10-----9--9--9--9--12-12-12-12-|
A |----10----10----10----10----10----10----10----10--10-10-10-10-------------|
F#|--------------------------------------------------------------------------|
D |--------------------------------------------------------------------------|
A |--------------------------------------------------------------------------|
D |-10----------------------9------------------------------------------------|

D |--------------------------------------------------------------------------|
A |--------------------------------------------------------------------------|
F#|--------------------------------------------------------------------------|
D |--------------------------------------------------------------------------|
A |--------------------------------------------------------------------------|
D |-2------5---4---0--2------5---4--0----------------------------------------|

This riff gets repeated some times, easy to figure out when and where to
start it.

Of all the feckless men that queue to be the next:
D |-9--7--0--9--7--0--9--0--9--7--0--9--7--0--9--7---------------------------|
A |-9--9--9--9--9--9--9--9--9--9--9--9--9--9--9--9---------------------------|
F#|-------------------------------------------------[-x2-]-------------------|
D |-9--9--9--9--9--9--9--9--9--9--9--9--9--9--9--9---------------------------|
A |--------------------------------------------------------------------------|
D |--------------------------------------------------------------------------|

The other guitarist plays the following. He plays it in normal tuning, but
I tabbed it for this tuning. Just lower it two frets if you are in normal
tuning.
D |-14--11-------------------------------------------------------------------|
A |---------14--12---------------14------------------------------------------|
F#|-------------------[x-a-lot]----------------------------------------------|
D |--------------------------------------------------------------------------|
A |--------------------------------------------------------------------------|
D |--------------------------------------------------------------------------|

Meanwhile, open D guitar plays this:
Steepled fingers...
D |-9--7--0--9--7--0--9--0--9--7--0--9--7--0--9--7--|
A |-9--9--9--9--9--9--9--9--9--9--9--9--9--9--9--9--|
F#|-------------------------------------------------|
D |-9--9--9--9--9--9--9--9--9--9--9--9--9--9--9--9--|
A |-------------------------------------------------|
D |-------------------------------------------------|

D |-9--7--0--9--7--0--9--0--9--7--0--9--7--0--9--7--|
A |-9--9--9--9--9--9--9--9--9--9--9--9--9--9--9--9--|
F#|-------------------------------------------------|
D |-0--0--0--0--0--0--0--0--0--0--0--0--0--0--0--0--|
A |-------------------------------------------------|
D |-------------------------------------------------|

D |-9--7--0--9--7--0--9--0--9--9--9--9--9--9--7--7--|
A |-9--9--9--9--9--9--9--9--9--9--9--9--9--9--9--9--|
F#|-------------------------------------------------|
D |-------------------------------------------------|
A |-9--9--9--9--9--9--9--9--0--0--0--0--0--0--0--0--|
D |-------------------------------------------------|

D |-9--7--0--9--7--0--9--0--9--7--0--9--7--0--9--7--|
A |-9--9--9--9--9--9--9--9--9--9--9--9--9--9--9--9--|
F#|-------------------------------------------------|
D |-------------------------------------------------|
A |-------------------------------------------------|
D |-9--9--9--9--9--9--9--9--9--9--9--9--9--9--9--9--|

Repeat it once, but add this at the end:

D |-9--|
A |-9--|
F#|----|
D |----|
A |----|
D |-9--|

In your hoof lies the heartland...
D |--------------------------------------------------------------------------|
A |--------------------------------------------------------------------------|
F#|--------------------------------------------------------------------------|
D |--------------------------------------------------------------------------|
A |--------------------------------------------------------------------------|
D |-----------0--------2--2--2--2--2--0--0--0--2--2--2--2--2--2--0--0--2--2--|


D |----------------------------------|
A |----------------------------------|
F#|----------------------------------|
D |----------------------------------|
A |----------------------------------|
D |-2--2--2--2--2--2--2--2--2--2--2--|

Open D guitar doesn't play anything now, but the other one does. He probably
did earlier but I am too lazy to tab. But here it's just filled with
D |----|
A |----|
F#|----| 
D |-12-| Times a million.
A |----|
D |----|

Blended by the lights!
D |--------------------------------------2-----------------------------------|
A |--------------------------------------2-----------------------------------|
F#|--------------------------------------2-----------------------------------|
D |--------------------------------------2-----------------------------------|
A |--------------------------------------2-----------------------------------|
D |--------5---4---0--2------5---4--0----2-------5---4---0--2------5---4--0--|


************************************

| /   slide up
| \   slide down
| h   hammer-on
| p   pull-off
| ~   vibrato
| +   harmonic
| x   Mute note
| b   Bend
| pb  Pre-bend
| br  Bend release
| pbr Pre-bend release
| brb Bend release bend

************************************
Добавлено: 08.11.2013
Другие материалы по этой песне:
  • Аккорды и текст

Страница создана 03.08.2013
http://primanota.ru/alt-j/fitzpleasure-chords.htm
Привет, Гость.
Предлагаем пройти революционный курс по гитаре.
Подарок от PrimaNota.Ru, забирай!