PrimaNota.ru - самый крупный в мире бесплатный архив песенных текстов, аккордов, табулатур и нот


All Time Low - Girls A Straight Up Hustler - аккорды и текст, таба, видео

Регистрация Запомнить меня
Войти через:  Facebook Google Twitter Vk Yandex Mail.ru

All Time Low - Girls A Straight Up Hustler - аккорды и текст, таба, видео

Печатать
Просмотров: 282
Уроки эстрадного вокала в Санкт-Петербурге
Girls A Straight Up Hustler
All Time Low
Standard Tuning
Intro & 1st verse
e|----------------------------------------------------|
B|-----8----8----8----8-----3----3----3----3----------|
G|----0----0----0----0-----0----0----0----0-----------|
D|----------------------------------------------------|
A|---7----7----6----6-----2----2----3----3------------|
E|----------------------------------------------------|

e|----------------------------------------------------|
B|-----8----8----8----8-----3----3----3----3----------|
G|----0----0----0----0-----0----0----0----0-----------|
D|----------------------------------------------------|
A|---7----7----6----6---------------------------------|
E|-----------------------3-----3----3----2------------|
^^^^This is also the 1st verse ***BUT*** right before the chorus (where the ¥ is) play a G 
(everything else is power chords}
Chorus (B= flat)
G5            D5         C5         Eb5
Take off your makeup and put down the camera,
G5            D5         C5         Eb5
Choke on the drama that makes me want to,
G5            D5         C5         Eb5
Tear up the pictures, the pages you've saved,
G5            D5         C5(hold)
Creating a life of trends and make believe...
Power Chords: [# on side= fret]
   G5               D5              C5              E(flat)5
    _._._X_X_X      _._._X_X_X      _._._X_X_X      _._._X_X_X
   | | | | | |     | | | | | |     | | | | | |     | | | | | |
   | | | | | |     | | | | | |     | | | | | |     | | | | | |
3  1----------   5 | 1--------   3 | 1--------   6 | 1--------
   | | | | | |     | | | | | |     | | | | | |     | | | | | |
   | 3 4 | | |     | | 3 4 | |     | | 3 4 | |     | | 3 4 | |
Post Chorus:                                    G
e|----------------------------------------------3--|
B|-----8-----8----3-----3---------8-----8-------3--|
G|----0-0---0-0---0-0---0-0------0-0---0-0---------|
D|-------------------------------------------------|
A|---7-----6----2----3----------7-----6--------(2)-|
E|----------------------------------------------3--|  
                         
2nd Verse: (each power chord is separated by guitar 2 rift until Alex sings "I'm just delirious")
Guitar 1-                 Guitar 2-
E5 (4 times)              e|-----------|      e|-----------|    
Eb5 (4 times)             B|--8-8-8-8--|      B|--8-8-8-8--|
B5 (4 times)              G|-----------|      G|-----------|
C5 (4times)               D|--5-5-5-5--|      D|--5-5-5-5--|
                          A|-----------|      A|-----------|
                          E|-----------|      E|-----------|
(to the beat)G5  D5   C5   Eb5
When Alex starts singing: 
Strum 4 times while pressing
G5          D5  
...Im just delirious 
 C5         Eb5
You cant be serious 
G5      D5            C5 (4 counts/beats)
...Your so infamous for leaving me a mess
Chorus (B= flat)
G5            D5         C5         Eb5
Take off your makeup and put down the camera,
G5            D5         C5         Eb5
Choke on the drama that makes me want to,
G5            D5         C5         Eb5
Tear up the pictures, the pages you've saved,
G5            D5         C5(hold)   Em   
Добавлено: 01.06.2014
Другие материалы по этой песне:

Страница создана 22.02.2012
http://primanota.ru/all-time-low/girls-a-straight-up-hustler-2-chords.htm
Привет, Гость.
Предлагаем пройти революционный курс по гитаре.
Подарок от PrimaNota.Ru, забирай!