PrimaNota.ru - самый крупный в мире бесплатный архив песенных текстов, аккордов, табулатур и нот


All Time Low - My Paradise - таба, видео

Регистрация Запомнить меня
Войти через:  Facebook Google Twitter Vk Yandex Mail.ru

All Time Low - My Paradise - таба, видео

Печатать
Просмотров: 128
Уроки эстрадного вокала в Санкт-Петербурге
Artist: All Time Low
Song: My Paradise
Album: 2003 Demo
Tabbed By: GuitarKid98 (Nathan S.)

This is the first and only tab of My Paradise. 
It's almost 100% correct. 
Please enjoy.


Intro Part 1. (Rhythm Guitar) 0:00-0:14

Play four times.

e|-----------------|-----------------|
B|-----------------|-----------------|
G|-----------------|-----------------|
D|--33-55-88-1010--|--3~-------------|
A|--33-55-88-1010--|--3~-------------|
D|--33-55-88-1010--|--3~-------------|


Intro Part 1. (Lead Guitar) 0:00-0:14

Play four times.

e|------------------------|
B|------------------------|
G|------------------------|
D|--3-2--3-2--3-2--5-3-2--|
A|------------------------|
D|------------------------|


Intro Part 2. (Rhythm Guitar) 0:19-0:25

Play twice.

e|----------|
B|----------|
G|----------|
D|--33-3~---|
A|--33-3~---|
D|--33-3~---|
    **


Intro Part 2. (Lead Guitar) 0:19-0:26

Play fourteen times.

e|-----------|-----------------------|
B|-----------|-----------------------|
G|--1010-10--|--10-------------------|
D|---x-x--x--|---x-------------------|
A|---8-8--8--|---8(Play five times)--|
D|---*-*-----|-----------------------|


Verse 1. (Lead Guitar) 0:27-0:42

Play four times.

e|----------------------|
B|----------------------|
G|--10-12-15--10-12-10--|
D|---x--x--x---x--x--x--|
A|---8-10-13---8-10--8--|
D|----------------------|


Chorus 1. (Lead Guitar) 0:47-0:54

Play twice. (This is all I could make out)

e|-------------|
B|-------------|
G|-------------|
D|--14-12-10~--|
A|---x--x--x~--|
D|--12-10--8~--|


Repeat Intro Part 1. (Rhythm) 0:58-1:13


The lead joins in at 1:06-1:13

Play eight times.

e|------|
B|------|
G|------|
D|--10--|
A|---x--|
D|---8--|


Verse 2. (Lead Guitar) 1:13-1:18

e|-----------------------------|
B|-----------------------------|
G|-----------------------------|
D|--3-3-5-5-8-8-8-8--3-3-5--8--|
A|-----------------------------|
D|-----------------------------|


Repeat Verse 1. 1:20-1:27


Repeat Chorus 1. 1:32-1:42


Bridge Part 1. (Rhythm Guitar) 1:58-2:11

Play three times.

e|---------------|
B|---------------|
G|---------------|
D|--33-55-88-10--|
A|--33-55-88-10--|
D|--33-55-88-10--|
    ** ** ** **


Bridge Part 1. (Lead Guitar) 1:58-2:11

Play eight times.

e|-------|
B|-------|
G|---10--|
D|----x--|
A|----8--|
D|-------|


Repeat Chorus 1 twice. 2:16-2:43
Добавлено: 04.08.2013
Другие материалы по этой песне:
  • Аккорды и текст

Страница создана 04.08.2013
http://primanota.ru/all-time-low/my-paradise-chords.htm
Привет, Гость.
Предлагаем пройти революционный курс по гитаре.
Подарок от PrimaNota.Ru, забирай!