PrimaNota.ru - самый крупный в мире бесплатный архив песенных текстов, аккордов, табулатур и нот


Alcest - Les Iris - бас-таба, видео

Регистрация Запомнить меня
Войти через:  Facebook Google Twitter Vk Yandex Mail.ru

Alcest - Les Iris - бас-таба, видео

Печатать
Просмотров: 257
Уроки эстрадного вокала в Санкт-Петербурге
Авторы музыки: Neige

            Alcest
	- Les Iries -
Souvenirs d'un Autre Monde (2007)

	tabbed by PelzR


-----
Info:
-----
Tuning: Eb Tuning (D# G# C# F#)

h -> hammer-on

------
Riffs:
------

(Re-)Intro/Verse

F#|-----------------|-----------------|-----------------|-----------------|
C#|-----------------|-----------------|-----------------|-----------------|
G#|-----------------|-2-2-2-2-2-2-2-2-|-3-3-3-3-3-3-3-3-|-5-5-5-5-5-5-5-5-|
D#|-0-0-0-0-0-0-0-0-|-----------------|-----------------|-----------------|

just before the first Verse
the last bar is a little different
or at least sounds different

F#|---------7-------|
C#|-------7---7-----| I'm not quite sure
G#|-5-5-5-------5-3-| about that but it
D#|-----------------| sounds ok


Pre-Chorus

F#|-----------------|-----------------|-----------------|-----------------|
C#|-----------------|-----------------|-7-7-7-7-7-7-7-7-|-7-7-7-7-7-7-7-7-|
G#|-7-7-7-7-7-7-7-7-|-7-7-7-7-7-7-7-7-|-----------------|-----------------|
D#|-----------------|-----------------|-----------------|-----------------|
 
F#|-----------------|-----------------|-----------------|-----------------|
C#|-----------------|-----------------|-5-5-5-5-5-5-5-5-|-7-7-7-7-7-7-7-7-|
G#|-7-7-7-7-7-7-7-7-|-7-7-7-7-7-7-7-7-|-----------------|-----------------|
D#|-----------------|-----------------|-----------------|-----------------|
  
F#|-----------------|-----------------|-----------------|-----------------|
C#|-----------------|-----------------|-7-7-7-7-7-7-7-7-|-7-7-7-7-7-7-7-7-|
G#|-7-7-7-7-7-7-7-7-|-5-5-5-5-5-5-5-5-|-----------------|-----------------|
D#|-----------------|-----------------|-----------------|-----------------|
   
F#|-----------------|-----------------|-----------------|-----------------|
C#|-----------------|-----------------|-----------------|-----------------|
G#|-7-7-7-7-7-7-7-7-|-5-5-5-5-5-5-5-5-|-----------------|-----------------|
D#|-----------------|-----------------|-5-5-5-5-5-5-5-5-|-5-5-5-5-5-5-5-5-|


Chorus 
		
F#|-----------------|-----------------|-----------------|-----------------|
C#|-----------------|-----------------|-----------------|-----------------|
G#|-7-7-7-7-7-7-7-7-|-----------------|-----------------|-2-2-2-2-2-2-2-2-|
D#|-----------------|-5-5-5-5-5-5-5-5-|-3-3-3-3-3-3-3-3-|-----------------|

Break

F#|---|
C#|---| let ring
G#|---|
D#|-0-| 


Interlude/Outro 2

F#|------|------|------|------|
C#|------|------|------|------| could be
G#|------|------|------|------| an octave 
D#|-1--1-|-3--3-|-5--5-|-5--5-| higher


Bass Solo

F#|-9-9-9--7-------------------7--------|-12-12-12------9h10-9--9------------------------|
C#|-----------10--9h10----9-10---9-7----|-----------12-------------7-7-7-7-7-7-7-7-7-7-7-|
G#|--------------------10------------10-|------------------------------------------------|
D#|-------------------------------------|------------------------------------------------|


Outro 1

F#|-----------------|-----------------|-----------------|-----------------|
C#|-----------------|-----------------|-----------------|-----------------| 
G#|-----------------|-----------------|-----------------|-----------------|  
D#|-1-1-1-1-1-1-1-1-|-3-3-3-3-3-3-3-3-|-5-5-5-5-5-5-5-5-|-5-5-5-5-5-5-5-5-|


----------
Structure:
----------
Intro	   - 4x
Verse      - 4x
Per-Chorus - 1x
Chorus	   - 4x
Break      - 1x
Re-Intro   - 4x
Pre-Chorus - 1x
Chorus     - 4x
Interlude  - 5x
Bass Solo  - 1x
Outro 1    - 6x
Outro 2    - 4x
    

Добавлено: 10.03.2012
Вам также может быть интересно:
Другие материалы по этой песне:

Страница создана 10.03.2012
http://primanota.ru/alcest/les-iris-chords.htm
Привет, Гость.
Предлагаем пройти революционный курс по гитаре.
Подарок от PrimaNota.Ru, забирай!