PrimaNota.ru - самый крупный в мире бесплатный архив песенных текстов, аккордов, табулатур и нот


Alcest - Ecailles De Lune Part Ii - таба, видео

Регистрация Запомнить меня
Войти через:  Facebook Google Twitter Vk Yandex Mail.ru

Alcest - Ecailles De Lune Part Ii - таба, видео

Печатать
Просмотров: 227
Уроки эстрадного вокала в Санкт-Петербурге
Guitar 1(clean):
ring out~~~~~~~~~~~~~~~~~~~~~~~~~~~~~~~~~~~~~~~~~~~~~~~~~~~~~~~~~~~~~~

E----------------------------------0----------0--------------------------------|
B------------------------2-------2----------2----------------------------------|
G-------------2---2--4---------4----------4------------------------------------|
D-4-4--4---4----4--------------------------------------------------------------|
A-4-----4------------------4------------4--------------------------------------|
E------------------------------------------------------------------------------|

E----------------------------------0----------0--2-----------------------------|
B------------------------2-------2----------2----------------------------------|
G-------------2---2--4---------4----------4------------------------------------|
D-4-4--4---4----4--------------------------------------------------------------|
A-4-----4------------------4------------4--------------------------------------|
E------------------------------------------------------------------------------|

E----------------------------------0----------0---------------------------------|
B------------------------2-------2----------2-----------------------------------|
G-------------2---2--4---------4----------4-------------------------------------|
D-4-4--4---4----4-----------------------2---------------------------------------|
A-4-----4------------------4----------------------------------------------------|
E-------------------------------------------------------------------------------|


E-----------------0---------------------------------------|-----|
B-----------------0---------------------------------------|-----|
G--------------2-----2----------------------------4-------|-----|
D-2---2--2---2---------2--2--2/4-4-4---4-4-4----4---4---4-|--4--|
A-2--------2-----------------0-0-----0----------------0---|--0--|
E-0--------------------------0-0--------------------------|--0--|




Guitar 2(dist):
E----------------------------------------------------------------------------------------|
B----------------------------------------------------------------------------------------|
G----------------------------------------------------------------------------------------|
D-7-----7-7-7---3-------5----------------------------------------------------------------|
A-5-----7-7-7---1-------3----------------------------------------------------------------|
E-5-----5-5-5---1-------3----------------------------------------------------------------|

Guitar 1(dist):
E----------------------|----------------------|-------------------------|
B--------------------1-|----------------------|-------------------------|
G-7-7--5--7------3-3-3-|-9--9----12----12--10-|-55555555555555333333/1--|
D-7-7--7--7--7---3-3-3-|-10-10------10--------|-------------------------|
A-5-5--------7---1-1---|-10-10----------------|-------------------------|
E-5--------------1-----|-8--------------------|-------------------------|


Guitar 2(dist):
E---------------------------------------------------------|
B---------------------------------------------------------|
G---------------------------------------------------------|
D--8----3-2----5---3-----12----------8----3--2--7---------|
A--8----3-3----5---5-----12----------8----3--3--5--5-7-8--|
E--6----1-1----3---3-----10----------6----1--1--5--5-5-5--|

Guitar 1(dist):
E----------------------------------------------------------------------------------------------0----|
B----1----------1-----------6-----------5------------8------------8----------6----------3---3----3--|
G--3---3------3---3-------5---5-------5---5-------7----7--------7---7------7---7----------2--------2|
D--------3----------3---3-------3---3-------3---5---------5---5-------5---5------0------------------|
A-1----------1--------------------------------------------------------------------------------------|
E---------------------------------------------------------------------------------------------------|

E----------------------------------------------------------|
B----1----------1-----------6-----------5-----------3------|
G--3---3------3---3-------5---5-------5---5-------2---2----|
D--------3----------3--3--------3--3--------3---0-------0--|
A-1----------1---------------------------------------------|
E----------------------------------------------------------|

Guitar 1(Clean):

  j  jsjsj js   js  js     js j
E----------------------------------------------------------|
B----------------------------------------------------------|
G----------------------------------------------------------|
D-7--77777-77---57--1010----99-10---77-55----5--10---9--5--|
A-5--55555-55---55--5-5-----55-5----55-55----5--5----5--5--|
E-5--55555-55---55--5-5-----55-5----55-55----8--8----8--8--|
Guitar 2:
E---------------------------------------------------------------------|
B--10-----------10b11---------r10-------------------------------------|
G---------------------------------------------------------------------|
D---------------------------------------------------------------------|
A---------------------------------------------------------------------|
E---------------------------------------------------------------------|


Guitar 2:
E----------------------------------------------------------------------------------------|
B----------------------------------------------------------------------------------------|
G-5/7--7-7-7-7--------------5-7--7-7-7-7---12--12-12-12-12-------------------------------|
D-5/7--7-7-7-7---3--2h3p0---5-7--7-7-7-7---12--12-12-12-12-------------------------------|
A-3/5--5-5-5-5------------3-3/5--5-5-5-5---10--10-10-10-10-------------------------------|
E----------------------------------------------------------------------------------------|

E------------------------------------------------------------------|
B------------------------------------------------------------------|
G-5/7--7-7-7-7---------------7--7-7-7-7---5-2--5-------------------|
D-5/7--7-7-7-7---3--2h3p0-5--7--7-7-7-7---5-2--5-------------------|
A-3/5--5-5-5-5---------------5--5-5-5-5---3-0--3-------------------|
E------------------------------------------------------------------|


Guitar1(palm mute):
E-----------------------------------------------------------------------|
B----------------13-----------------15-15p13----------------------------|
G----14--14---14----14---14----14---------------------------------------|
D-12---12--12---------12----12------------------------------------------|
A-----------------------------------------------------------------------|
E-----------------------------------------------------------------------|

Guitar2(dist):

E--------------------------------------------------------------------|
B--------------------------------------------------------------------|
G-10---9----7--5-----------------------------------------------------|
D-10---10---7--5-----------------------------------------------------|
A-8----7----5--3-----------------------------------------------------|
E--------------------------------------------------------------------|

Guitar1(clean):
E-------------|-----|-------------------------------------------------------|
B-------------|-----|-------------------------------------------------------|
G-------------|-----|-------------------------------------------------------|
D---10-----10-|-7--5|-10/12-12-12-12-12-12-10-10-10-10-10-------------------|
A-8-8---7--7--|-5--3|-------------------------------------------------------|
E-8-8---8--8--|-5--3|-------------------------------------------------------|



Guitar 1(clean):
E-------------------0-------------------------------------------------|
B---------0---------------------------------2-------------------------|
G-----1-----1----2----1----1------------2-----2----4---2----1---------|
D----------------------------2/4----------4-----4--------4-------2/4--|
A-------4------4---------4-----------0--------------------------2-----|
E-2------------------------------------------------------------0------|


Guitar1(dist):
E---------------5-----------------------------------------------------------------------|
B-----7-----------7-------7---5---------------------------------------------------------|
G---6---6-----6--------6----6-----6-----6---4---2----2-2-2-2-2-2-2-2--------------------|
D-4---------4--------4----------4-----0---0---0---0--2-2-2-2-2-2-2-2--------------------|
A----------------------------------------------------0-0-0-0-0-0-0-0--------------------|
E---------------------------------------------------------------------------------------|
Guitar2(acoustic):
E--------------------------------------------------------------------------------|
B--------------------------------------------------------------------------------|
G--------------------------------------------------------------------------------|
D-11-----------------------------------------------------------------------------|
A-9--11--12---14-14-14-14-14-14-14-14--------------------------------------------|
E----9---10---12-12-12-12-12-12-12-12--------------------------------------------|


Guitar1(distortion):
E-------------------0-------------------------------------------------|
B---------0---------------------------------2-------------------------|
G-----1-----1----2----1----1------------2-----2----4---2----1---------|
D----------------------------2/4----------4-----4--------4-------2/4--|
A-------4------4---------4-----------0--------------------------2-----|
E-2------------------------------------------------------------0------|

Guitar2(clean):
E-------------------0-------------------------------------------------|
B---------0---------------------------------2-------------------------|
G-----1-----1----2----1----1------------2-----2----4---2----1---------|
D----------------------------2/4----------4-----4--------4-------2/4--|
A-------4------4---------4-----------0--------------------------2-----|
E-2------------------------------------------------------------0------|


Guitar1(clean):
E----------------------------------0----------0--------------------------------|
B------------------------2-------2----------2----------------------------------|
G-------------2---2--4---------4----------4------------------------------------|
D-4-4--4---4----4--------------------------------------------------------------|
A-4-----4------------------4------------4--------------------------------------|
E------------------------------------------------------------------------------|

E----------------------------------0----------0--2-----------------------------|
B------------------------2-------2----------2----------------------------------|
G-------------2---2--4---------4----------4------------------------------------|
D-4-4--4---4----4--------------------------------------------------------------|
A-4-----4------------------4------------4--------------------------------------|
E------------------------------------------------------------------------------|

E----------------------------------0----------0---------------------------------|
B------------------------2-------2----------2-----------------------------------|
G-------------2---2--4---------4----------4-------------------------------------|
D-4-4--4---4----4-----------------------2---------------------------------------|
A-4-----4------------------4----------------------------------------------------|
E-------------------------------------------------------------------------------|


E-----------------0---------------------------------------|-----|
B-----------------0---------------------------------------|-----|
G--------------2-----2----------------------------4-------|-----|
D-2---2--2---2---------2--2--2/4-4-4---4-4-4----4---4---4-|--4--|
A-2--------2-----------------0-0-----0----------------0---|--0--|
E-0--------------------------0-0--------------------------|--0--|
Guitar2(dist):

E----------14-12-9------17----7--9---------------------------------|
B-7--10-7---------------------------7------------------------------|
G------------------------------------------------------------------|
D------------------------------------------------------------------|
A------------------------------------------------------------------|
E------------------------------------------------------------------|
Добавлено: 07.04.2014
Другие материалы по этой песне:

Страница создана 22.06.2012
http://primanota.ru/alcest/ecailles-de-lune-part-ii-chords.htm
Привет, Гость.
Предлагаем пройти революционный курс по гитаре.
Подарок от PrimaNota.Ru, забирай!