PrimaNota.ru - самый крупный в мире бесплатный архив песенных текстов, аккордов, табулатур и нот


Albert King - Kansas City - бас-таба, видео

Регистрация Запомнить меня
Войти через:  Facebook Google Twitter Vk Yandex Mail.ru

Albert King - Kansas City - бас-таба, видео

Печатать
Просмотров: 202
Авторы музыки: Mike Stoller
Авторы текста: Jerry Leiber
Kansas City.btab
Albert King
TablEdited by Poppamies

 Tempo 118               
|--------------------------------|0-----0-----------------0-------|
|--------------------------------|--------3-----3-2---------------|
|--------------------------------|--------------------------------|
|--------------------------------|--------------------------------|
 
       
|--------------------------------|--------------------------------|
|3-------1-------0-------1-----1-|--------------------------------|
|--------------------------------|3-----3-1-----1-0-----0-1-------|
|--------------------------------|--------------------------------|
 
      
|--------------------------------|--------------------------------|
|--------------------------------|--------------------------------|
|3-------1-------0-----0-1-----1-|3-----3-1-------0-----0-3-------|
|--------------------------------|--------------------------------|
 
    
|--------------------------------|--------------------------------|
|3-----3-1-------0-------1-----1-|--------------------------------|
|--------------------------------|3-----3-1-------0-------1-----1-|
|--------------------------------|--------------------------------|
 
    
|--------------------------------|--------------------------------|
|--------------------------------|3-----3-1-------0-------1-----1-|
|3-----3-1-------0-------3-----3-|--------------------------------|
|--------------------------------|--------------------------------|
 
        
|--------------------------------|--------------------------------|
|3-----3-1-------0-------1-----1-|--------------------------------|
|--------------------------------|3-----3-1-----1-0-----0-1-----1-|
|--------------------------------|--------------------------------|
 
    
|--------------------------------|0-----0-----------------0-------|
|--------------------------------|--------3-----3-2---------------|
|3-----3-1-----1-0-----0-3-----3-|--------------------------------|
|--------------------------------|--------------------------------|
 
      
|--------------------------------|--------------------------------|
|3-----3-1-----1-0-----0-1-------|--------------------------------|
|--------------------------------|3-----3-1-----1-0-----0-1-----1-|
|--------------------------------|--------------------------------|
 
     
|--------------------------------|--------------------------------|
|--------------------------------|--------------------------------|
|3-----3-1-----1-0-----0-1-----1-|3-----3-1-----1-0-----0-3-----3-|
|--------------------------------|--------------------------------|

       
|--------------------------------|--------------------------------|
|3-----3-1-------0-----0-1-1-1---|--------------------------------|
|--------------------------------|3-----3-1-----1-0-----0-1-1-1---|
|--------------------------------|--------------------------------|
 
       
|--------------------------------|--------------------------------|
|------------------------0-------|3-----3-1-----1-0-------1-------|
|3-----3-1-----1-3-----3---------|--------------------------------|
|--------------------------------|--------------------------------|
 
         
|--------------------------------|--------------------------------|
|--------------------------------|--------------------------------|
|3-------1-------0-----0-1-------|3-----3-1-------0-----0-3-----3-|
|--------------------------------|--------------------------------|
 

Created with TablEdit http://www.tabledit.com/
Добавлено: 15.03.2012
Другие материалы по этой песне:
  • Аккорды и текст

Страница создана 15.03.2012
http://primanota.ru/albert-king/kansas-city-chords.htm
Привет, Гость.
Предлагаем пройти революционный курс по гитаре.
Подарок от PrimaNota.Ru, забирай!