PrimaNota.ru - самый крупный в мире бесплатный архив песенных текстов, аккордов, табулатур и нот


Albert King - The Hunter - текст песни, таба, бас-таба, видео

Регистрация Запомнить меня
Войти через:  Facebook Google Twitter Vk Yandex Mail.ru

Albert King - The Hunter - текст песни, таба, бас-таба, видео

Печатать
Просмотров: 107
Авторы музыки: Al Jackson, Jr., Steve Cropper, Donald “Duck” Dunn, Junior Wells, Booker T. Jones

THE HUNTER

As recorded by Albert King
(From the 1967 Album BORN UNDER A BAD SIGN)

Words and Music by Booker T. Jones, Carl Wells, Steve Cropper, Donald Dunn & Al Jackson, Jr.

Transcribed by Slowhand


Gtr I (B E B E G# C#) - 'Albert King - Electric Guitar (Tuning:DGDGBE one and a half step down: BEBEG#C#)'
Gtr II (E A D G B E) - 'Steve Cropper - Electric Guitar'


 Intro
  Q=134(8=s8)
  N.C.
 4/4
  Gtr I (El. Gtr. w/ light dist. / Tuning: BEBEG#C#)
                       ~~~~~~
                 |--3--|
   a     +H      E     Q +Q     E  E Q  H
|-11b15-(11)----11pb12-8-(8)--|---------------|
|-----------------------------|-8\------------|
|-----------------------------|---------------|
|-----------------------------|---------------|
|-----------------------------|---------------|
|-----------------------------|---------------|
|
| Gtr II (Clean El. Gtr.)
|         W                     H       Q  Q
|-----------------------------|---------------|
|-----------------------------|---------5s=7--|
|-----------------------------|---------5s=7--|
|-----------------------------|---------------|
|-----------------------------|---------------|
|-----------------------------|---------------|


                                       G   E
                      ~~~~~~
                |--3--|
   Q      +Q    E     Q +Q      Q   Q   H
|-11b15--(11)--11pb12-8-(8)--|-11\------------|
|----------------------------|-11\------------|
|----------------------------|----------------|
|----------------------------|----------------|
|----------------------------|----------------|
|----------------------------|----------------|
|
|  W                            H       Q  Q
|----------------------------|----------------|
|----------------------------|---------12s=9--|
|----------------------------|---------12s=9--|
|----------------------------|----------------|
|----------------------------|---------10s=7--|
|----------------------------|----------------|


  N.C.
   a      +Q    +Q    Q       +Q      Q       +E  E  E  E     +Q
|-11b15==(11)r=(11)--11pb15r=(11)--|-11pb15r=(11)-8-11-11b15-(11)--|
|----------------------------------|-------------------------------|
|----------------------------------|-------------------------------|
|----------------------------------|-------------------------------|
|----------------------------------|-------------------------------|
|----------------------------------|-------------------------------|
|
|          W                          H              Q         Q
|----------------------------------|-------------------------------|
|----------------------------------|-----------------5s========7---|
|----------------------------------|-----------------5s========7---|
|----------------------------------|-------------------------------|
|----------------------------------|-------------------------------|
|----------------------------------|-------------------------------|


                              ~
   E     +E   Q       +E    E Q     Q      Q  H
|-11b15-(11)-11b13===(11)r-11-8--|-11b12--\6-------||
|-----------------------------8--|-----------------||
|--------------------------------|-----------------||
|--------------------------------|-----------------||
|--------------------------------|-----------------||
|--------------------------------|-----------------||
|
|  W                                W
|--------------------------------|-----------------||
|--------------------------------|-----------------||
|--------------------------------|-----------------||
|--------------------------------|-----------------||
|--------------------------------|-----------------||
|--------------------------------|-----------------||


 1st Verse
  A         G A             C D       A         G A               G5  E5
  W                 H       E E E E   W                 Q   E E E E a E E
|-----------------|-----------6-----|-----------------|-------8-6----------|
|-----------------|-------------8---|-----------------|-----------8--------|
|-----------------|-----------------|-----------------|-------------8s7----|
|-----------------|-----------------|-----------------|--------------------|
|-----------------|-----------------|-----------------|--------------------|
|-----------------|-----------------|-----------------|--------------------|
|
| e E e E E E e E   e E e E e E e E   e E e E E E e E   e E e E Q     Q
|-0---0---0---0---|-0---0-----------|-0---0---0---0---|-0---0--------------|
|-2---2---2-0-2---|-2---2---5---7---|-2---2---2-0-2---|-2---2--------------|
|-2---2---2-0-2---|-2---2---5---7---|-2---2---2-0-2---|-2---2---0----------|
|-2---2---2-0-2---|-2---2---5---7---|-2---2---2-0-2---|-2---2---0----------|
|-0---0---0---0---|-0---0---3---5---|-0---0---0---0---|-0---0---------2----|
|-----------3-----|-----------------|-----------3-----|---------3-----0----|


  A         G A             C     D       A         G A             G5  E5
  W                 Q   E   +E  E E E E   W                 Q   E E E E Q
|-----------------|---------------------|-----------------|-----8-6--------|
|-----------------|-----6b8-(6)-6-4-----|-----------------|---------8------|
|-----------------|-----------------5---|-----------------|----------------|
|-----------------|---------------------|-----------------|----------------|
|-----------------|---------------------|-----------------|----------------|
|-----------------|---------------------|-----------------|----------------|
|
| e E e E E E e E   e E e    E  e E e E   e E e E E E e E   e E e E Q   Q
|-0---0---0---0---|-0---0---------------|-0---0---0---0---|-0---0----------|
|-2---2---2-0-2---|-2---2-------5---7---|-2---2---2-0-2---|-2---2----------|
|-2---2---2-0-2---|-2---2-------5---7---|-2---2---2-0-2---|-2---2---0------|
|-2---2---2-0-2---|-2---2-------5---7---|-2---2---2-0-2---|-2---2---0------|
|-0---0---0---0---|-0---0-------3---5---|-0---0---0---0---|-0---0-------2--|
|-----------3-----|---------------------|-----------3-----|---------3---0--|


  D         C D              F    G      D         C D                  G5E5
                              ~~
  W                 Q   E  E  Q    E E   W                 Q   Q      E E E E
|-----------------|-------11--8--------|-----------------|--------------------|
|-----------------|---------------11---|-----------------|-----8b10---6-------|
|-----------------|--------------------|-----------------|--------------8-5---|
|-----------------|--------------------|-----------------|--------------------|
|-----------------|--------------------|-----------------|--------------------|
|-----------------|--------------------|-----------------|--------------------|
|
| e E e E E E e E   e E e  E  e E  e E   e E e E E E e E   e E e    E Q   Q
|-----------------|--------------------|-----------------|--------------------|
|-7---7---7-5-7---|-7---7----10---12---|-7---7---7-5-7---|-7---7--------------|
|-7---7---7-5-7---|-7---7----10---12---|-7---7---7-5-7---|-7---7------0-------|
|-7---7---7-5-7---|-7---7----10---12---|-7---7---7-5-7---|-7---7------0-------|
|-5---5---5---5---|-5---5-----8---10---|-5---5---5---5---|-5---5----------2---|
|-----------------|--------------------|-----------------|------------3---0---|


  A       G   A                 C   D     A         G A             C     D
                                                                    ~
  E E Q   H         Q   E   +E  E E E E   E E Q   H         Q   E E Q   E E
|-----------------|---------------------|-----------------|-------8-6-------||
|-8---------------|-----6b8-(6)-6-4-----|-8---------------|-------------8---||
|-8---------------|-----------------5---|-8---------------|-----------------||
|-----------------|---------------------|-----------------|-----------------||
|-----------------|---------------------|-----------------|-----------------||
|-----------------|---------------------|-----------------|-----------------||
|
| e E e E E E e E   e E e    E  e E e E   e E e E E E e E   e E e E e E e E
|-0---0---0---0---|-0---0---------------|-0---0---0---0---|-0---0-----------||
|-2---2---2-0-2---|-2---2-------5---7---|-2---2---2-0-2---|-2---2---5---7---||
|-2---2---2-0-2---|-2---2-------5---7---|-2---2---2-0-2---|-2---2---5---7---||
|-2---2---2-0-2---|-2---2-------5---7---|-2---2---2-0-2---|-2---2---5---7---||
|-0---0---0---0---|-0---0-------3---5---|-0---0---0---0---|-0---0---3---5---||
|-----------3-----|---------------------|-----------3-----|-----------------||


 Chorus
     E9            E6     E9           D9                    F
  W                H      Q   e E   W                Q   e E  H
|----------------|----------------|----------------|-----8-----------|
|----------------|-----------10---|----------------|-----8-----------|
|----------------|-----------10---|----------------|-----------------|
|----------------|----------------|----------------|-----------------|
|----------------|----------------|----------------|-----------------|
|----------------|----------------|----------------|-----------------|
|
| Q  e E E E e E   e E H      e E   Q  e E E E e E   e E Q    e E Q
|----7-----7-7---|-9---7------7---|----5-----5-5---|-5---------------|
|----7-----7-7---|-9---7------7---|----5-----5-5---|-5-------10------|
|----7-----7-7---|-9---7------7---|----5-----5-5---|-5-------10------|
|----6-----6-6---|-----6------6---|----4-----4-4---|-4-------10------|
|----7-----7-7---|-----7------7---|----5-----5-5---|-5--------8------|
|----------------|----------------|----------------|-----------------|


  A         G A             C   D     E
  W                 W                 W                Q   E E E E E E
|-----------------|-----------------|----------------|-------8-6-------||
|-----------------|-----------------|----------------|-----------8-----||
|-----------------|-----------------|----------------|-------------8---||
|-----------------|-----------------|----------------|-----------------||
|-----------------|-----------------|----------------|-----------------||
|-----------------|-----------------|----------------|-----------------||
|
| e E e E E E e E   e E e E e E e E   Q  E E E E E E   E E E E E E E E
|-0---0---0---0---|-0---0-----------|----------------|-----------------||
|-2---2---2-0-2---|-2---2---5---7---|----9---9---9---|-9---9---9---9---||
|-2---2---2-0-2---|-2---2---5---7---|----9---9---9---|-9---9---9---9---||
|-2---2---2-0-2---|-2---2---5---7---|----9---9---9---|-9---9---9---9---||
|-0---0---0---0---|-0---0---3---5---|----7---7---7---|-7---7---7---7---||
|-----------3-----|-----------------|-0--------------|-----------------||


 2nd Verse
  A         G A               C   D     A         G A                   GE5
  W                 Q   Q     E E E E   W                 Q   Q     E E E E
|-----------------|-------------------|-----------------|-------------------|
|-----------------|-----6b8---6-4-----|-----------------|-----6b8---6-4-----|
|-----------------|---------------5---|-----------------|---------------5---|
|-----------------|-------------------|-----------------|-------------------|
|-----------------|-------------------|-----------------|-------------------|
|-----------------|-------------------|-----------------|-------------------|
|
| e E e E E E e E   e E e   E e E e E   e E e E E E e E   e E e   E Q   Q
|-0---0---0---0---|-0---0-------------|-0---0---0---0---|-0---0-------------|
|-2---2---2-0-2---|-2---2-----5---7---|-2---2---2-0-2---|-2---2-------------|
|-2---2---2-0-2---|-2---2-----5---7---|-2---2---2-0-2---|-2---2-----0-------|
|-2---2---2-0-2---|-2---2-----5---7---|-2---2---2-0-2---|-2---2-----0-------|
|-0---0---0---0---|-0---0-----3---5---|-0---0---0---0---|-0---0---------2---|
|-----------3-----|-------------------|-----------3-----|-----------3---0---|


  A         G A                   CD    A         G A               G5E5
  W                 Q   Q     E E E E   W                 Q   E E E E E E
|-----------------|-------------------|-----------------|-----6-6---------|
|-----------------|-----6b8---6-4-----|-----------------|---------8-------|
|-----------------|---------------5---|-----------------|-----------8-5---|
|-----------------|-------------------|-----------------|-----------------|
|-----------------|-------------------|-----------------|-----------------|
|-----------------|-------------------|-----------------|-----------------|
|
| e E e E E E e E   e E e   E e E e E   e E e E E E e E   e E e E Q   Q
|-0---0---0---0---|-0---0-------------|-0---0---0---0---|-0---0-----------|
|-2---2---2-0-2---|-2---2-----5---7---|-2---2---2-0-2---|-2---2-----------|
|-2---2---2-0-2---|-2---2-----5---7---|-2---2---2-0-2---|-2---2---0-------|
|-2---2---2-0-2---|-2---2-----5---7---|-2---2---2-0-2---|-2---2---0-------|
|-0---0---0---0---|-0---0-----3---5---|-0---0---0---0---|-0---0-------2---|
|-----------3-----|-------------------|-----------3-----|---------3---0---|


  D         C D                   F G    D         C D                     G5E5
                              ~~
  W                 Q   E  E  Q    E E   W                 Q   E   +E  E E E E
|-----------------|-------11--8---11---|-----------------|---------------------|
|-----------------|--------------------|-----------------|-----6b8-(6)-6-4-----|
|-----------------|--------------------|-----------------|-----------------5---|
|-----------------|--------------------|-----------------|---------------------|
|-----------------|--------------------|-----------------|---------------------|
|-----------------|--------------------|-----------------|---------------------|
|
| e E e E E E e E   e E e  E  e E  e E   e E e E E E e E   e E e    E  Q   Q
|-----------------|--------------------|-----------------|---------------------|
|-7---7---7-5-7---|-7---7----10---12---|-7---7---7-5-7---|-7---7---------------|
|-7---7---7-5-7---|-7---7----10---12---|-7---7---7-5-7---|-7---7-------0-------|
|-7---7---7-5-7---|-7---7----10---12---|-7---7---7-5-7---|-7---7-------0-------|
|-5---5---5---5---|-5---5-----8---10---|-5---5---5---5---|-5---5-----------2---|
|-----------------|--------------------|-----------------|-------------3---0---|


  A           G A                 CD    A         G A             C     D
                                                                  ~
  W                 Q   Q     E E E E   W                 Q   E E Q   E E
|-----------------|-------------------|-----------------|-----8---6-------||
|-----------------|-----6b8---6-4-----|-----------------|-----8-------8---||
|-----------------|---------------5---|-----------------|-----------------||
|-----------------|-------------------|-----------------|-----------------||
|-----------------|-------------------|-----------------|-----------------||
|-----------------|-------------------|-----------------|-----------------||
|
| e E e E E E e E   e E e   E e E e E   e E e E E E e E   e E e E e E e E
|-0---0---0---0---|-0---0-------------|-0---0---0---0---|-0---0-----------||
|-2---2---2-0-2---|-2---2-----5---7---|-2---2---2-0-2---|-2---2---5---7---||
|-2---2---2-0-2---|-2---2-----5---7---|-2---2---2-0-2---|-2---2---5---7---||
|-2---2---2-0-2---|-2---2-----5---7---|-2---2---2-0-2---|-2---2---5---7---||
|-0---0---0---0---|-0---0-----3---5---|-0---0---0---0---|-0---0---3---5---||
|-----------3-----|-------------------|-----------3-----|-----------------||


 Chorus
     E9            E6  E9               D9                    F
  W                Q    Q   H        W                Q   e E  H
|----------------|-----10\---------|----------------|-----8-----------|
|----------------|-----10\---------|----------------|-----8-----------|
|----------------|-----10\---------|----------------|-----------------|
|----------------|-----------------|----------------|-----------------|
|----------------|-----------------|----------------|-----------------|
|----------------|-----------------|----------------|-----------------|
|
| Q  e E E E e E   e E  H      e E   Q  e E E E e E   e E Q    e E Q
|----7-----7-7---|-9----7------7---|----5-----5-5---|-5---------------|
|----7-----7-7---|-9----7------7---|----5-----5-5---|-5-------10------|
|----7-----7-7---|-9----7------7---|----5-----5-5---|-5-------10------|
|----6-----6-6---|------6------6---|----4-----4-4---|-4-------10------|
|----7-----7-7---|------7------7---|----5-----5-5---|-5--------8------|
|----------------|-----------------|----------------|-----------------|


  A         G A             C   D     E
  W                 W                 W                W
|-----------------|-----------------|----------------|-----------------||
|-----------------|-----------------|----------------|-----------------||
|-----------------|-----------------|----------------|-----------------||
|-----------------|-----------------|----------------|-----------------||
|-----------------|-----------------|----------------|-----------------||
|-----------------|-----------------|----------------|-----------------||
|
| e E e E E E e E   e E e E e E e E   Q  E E E E E E   E E E E E E E E
|-0---0---0---0---|-0---0-----------|----------------|-----------------||
|-2---2---2-0-2---|-2---2---5---7---|----9---9---9---|-9---9---9---9---||
|-2---2---2-0-2---|-2---2---5---7---|----9---9---9---|-9---9---9---9---||
|-2---2---2-0-2---|-2---2---5---7---|----9---9---9---|-9---9---9---9---||
|-0---0---0---0---|-0---0---3---5---|----7---7---7---|-7---7---7---7---||
|-----------3-----|-----------------|-0--------------|-----------------||


 Guitar Solo
  A7
                                                  ~~~~~~~
   a     +H           E        E      Q           Q    E  E  H
|-11b15-(11)---------11pb11.5-11pb13-11b11.5---|--8h==11--------------|
|----------------------------------------------|------11--------------|
|----------------------------------------------|----------------------|
|----------------------------------------------|----------------------|
|----------------------------------------------|----------------------|
|----------------------------------------------|----------------------|
|
|         E  E  E  E  E        E      E      E    E E  E  E  E E  E E
|----------------------------------------------|----------------------|
|----------------------------------------------|----------------------|
|--------12----12-12-12--------------12--------|-12---12-12-12---12---|
|--------12----12-12-11--------------11--------|-12---12-12-11---11---|
|----------------------------------------------|----------------------|
|----------------------------------------------|----------------------|


                                     ~~~~~~~
   Q       +Q      Q       Q         Q    E  E  H
|-11b15---(11)----11b13---11b13---|--8h==11---------------|
|---------------------------------|------11---------------|
|---------------------------------|-----------------------|
|---------------------------------|-----------------------|
|---------------------------------|-----------------------|
|---------------------------------|-----------------------|
|
|  E    E   E   E  E    E  E    E    E E  E  E  E E  E E
|---------------------------------|-----------------------|
|---------------------------------|-----------------------|
|-12-------12--12-12------12------|-12---12-12-12---12----|
|-12-------12--12-11------11------|-12---12-12-11---11----|
|---------------------------------|-----------------------|
|---------------------------------|-----------------------|


   a      +Q     +Q      Q        +Q       Q        +Q      Q        +E  E
|-11b15==(11)r==(11)----11pb15r==(11)---|-11pb15r==(11)----11pb15r==(11)-8-|
|---------------------------------------|----------------------------------|
|---------------------------------------|----------------------------------|
|---------------------------------------|----------------------------------|
|---------------------------------------|----------------------------------|
|---------------------------------------|----------------------------------|
|
|          E  E   E   E  E     E   E  E    E     E   E   E  E     E   E  E
|---------------------------------------|----------------------------------|
|---------------------------------------|----------------------------------|
|---------12-----12--12-12--------12----|-12--------12--12-12--------12----|
|---------12-----12--12-11--------11----|-12--------12--12-11--------11----|
|---------------------------------------|----------------------------------|
|---------------------------------------|----------------------------------|


   E  E     +Q      Q       +E   E       +E   +E   a      +Q      +E   +E   E      E
|-11-11b15-(11)----11b15---(11)-11b15-|-(11)-(11)-11b14==(11)----(11)r(11)-11pb12-11pb14.5-|
|-------------------------------------|----------------------------------------------------|
|-------------------------------------|----------------------------------------------------|
|-------------------------------------|----------------------------------------------------|
|-------------------------------------|----------------------------------------------------|
|-------------------------------------|----------------------------------------------------|
|
|  E  E      E   E  E    E   E   E        E    E           E   E   E    E   E      E
|-------------------------------------|----------------------------------------------------|
|-------------------------------------|----------------------------------------------------|
|-12--------12--12-12-------12--------|--12---------------12--12--12-------12--------------|
|-12--------12--12-11-------11--------|--12---------------12--12--11-------11--------------|
|-------------------------------------|----------------------------------------------------|
|-------------------------------------|----------------------------------------------------|


  D7sus4          D7          D7sus4          D7
             ~~
   Q         H          Q      W
|-11b11.5----8---------11\--|---------------------|
|----------------------11\--|---------------------|
|---------------------------|---------------------|
|---------------------------|---------------------|
|---------------------------|---------------------|
|---------------------------|---------------------|
|
|  E      E  E  E  E E  Q      E E  E  E  E E  Q
|---------------------------|---------------------|
|-13--------13-13-14---14---|-13---13-13-14---14--|
|-12--------12-12-11---11---|-12---12-12-11---11--|
|-12--------12-12-12---12---|-12---12-12-12---12--|
|---------------------------|---------------------|
|---------------------------|---------------------|


  D7sus4     D7                        D7sus4            D7
                                                          ~~
              |-----3------|                                    |--3--|  |-3--|
   Q    E  E  E  E        +E   +Q       a     +E   E      Q     E E   E +E  E E
|-------8--8-11-11b15====(11)-(11)r--|-11b15-(11)-11pb12--8-----6---------------|
|------------------------------------|--------------------8-------8---6-(6)s4---|
|------------------------------------|----------------------------------------5-|
|------------------------------------|------------------------------------------|
|------------------------------------|------------------------------------------|
|------------------------------------|------------------------------------------|
|
|  E E  E  E  E        E        Q              E   E      E  E  E   E    Q
|------------------------------------|------------------------------------------|
|-13---13-13-14----------------14----|--------13---------13-13-14-------14------|
|-12---12-12-11----------------11----|--------12---------12-12-11-------11------|
|-12---12-12-12----------------12----|--------12---------12-12-12-------12------|
|------------------------------------|------------------------------------------|
|------------------------------------|------------------------------------------|


  A7
                                  ~~~
          |--3---|                                 |--3--|
   E E    E E    E  Q    E E     +Q     E  E  E E  E E   E
|---------8----------------6b8-|-(6)----8-----6-8----------|
|--4S6b8-----------------------|-----------8-------8-6-----|
|-----------8------------------|-------------------------8-|
|------------------------------|---------------------------|
|------------------------------|---------------------------|
|------------------------------|---------------------------|
|
|  E E    E    E    E E  E E      E  E  E  E  E E  E   E
|------------------------------|---------------------------|
|------------------------------|---------------------------|
|-12-----12---12---12---12-----|-12----12-12-12---12-------|
|-12-----12---12---11---11-----|-12----12-12-11---11-------|
|------------------------------|---------------------------|
|------------------------------|---------------------------|


                           ~~~~~~~~~~~~~~
        |--3---|  |--3--|
   E E  E E    E  E E   E  Q        +Q      E  E  E E  E E
|---------8------10-8------6b8====|=(6)r----8-----8-6-------||
|------/8------8--------8--6b8====|=(6)r---------------8----||
|--9------------------------------|-------------------------||
|---------------------------------|-------------------------||
|---------------------------------|-------------------------||
|---------------------------------|-------------------------||
|
|  E E  E    E    E   E    E    E    E   E  E  E  E E  E E
|---------------------------------|-------------------------||
|---------------------------------|-------------------------||
|-12---12---12---12-------12------|-12-----12-12-12---12----||
|-12---12---12---11-------11------|-12-----12-12-11---11----||
|---------------------------------|-------------------------||
|---------------------------------|-------------------------||


 Chorus
     E9            E6          E9       D9                    F
  W                H       Q   Q     W                Q   e E  H
|----------------|--------10\------|----------------|-----8-----------|
|----------------|--------10\--8---|----------------|-----8-----------|
|----------------|--------10\------|----------------|-----------------|
|----------------|-----------------|----------------|-----------------|
|----------------|-----------------|----------------|-----------------|
|----------------|-----------------|----------------|-----------------|
|
| Q  e E E E e E   e E H       e E   Q  e E E E e E   e E Q    e E Q
|----7-----7-7---|-9---7-------7---|----5-----5-5---|-5---------------|
|----7-----7-7---|-9---7-------7---|----5-----5-5---|-5-------10------|
|----7-----7-7---|-9---7-------7---|----5-----5-5---|-5-------10------|
|----6-----6-6---|-----6-------6---|----4-----4-4---|-4-------10------|
|----7-----7-7---|-----7-------7---|----5-----5-5---|-5--------8------|
|----------------|-----------------|----------------|-----------------|


  A         G A             C   D     E
  W                 Q   e E H         W                W
|-----------------|-----8-----------|----------------|-----------------||
|-----------------|-----8-----------|----------------|-----------------||
|-----------------|-----------------|----------------|-----------------||
|-----------------|-----------------|----------------|-----------------||
|-----------------|-----------------|----------------|-----------------||
|-----------------|-----------------|----------------|-----------------||
|
| e E e E E E e E   e E e E e E e E   Q  E E E E E E   E E E E E E E E
|-0---0---0---0---|-0---0-----------|----------------|-----------------||
|-2---2---2-0-2---|-2---2---5---7---|----9---9---9---|-9---9---9---9---||
|-2---2---2-0-2---|-2---2---5---7---|----9---9---9---|-9---9---9---9---||
|-2---2---2-0-2---|-2---2---5---7---|----9---9---9---|-9---9---9---9---||
|-0---0---0---0---|-0---0---3---5---|----7---7---7---|-7---7---7---7---||
|-----------3-----|-----------------|-0--------------|-----------------||


 Outro
  A7
                                        |--3--|
   W                      Q    E   +E   E E   E  e E
|----------------------|-----------------------------|
|----------------------|-------6b8-(6)--6------------|
|----------------------|------------------8---5------|
|----------------------|-------------------------5---|
|----------------------|-----------------------------|
|----------------------|-----------------------------|
|
|  E E  E  E  E E  E E    E E  E    E   E   E    E E
|----------------------|-----------------------------|
|----------------------|-----------------------------|
|-12---12-12-12---12---|-12---12---12--12-------12---|
|-12---12-12-11---11---|-12---12---12--11-------11---|
|----------------------|-----------------------------|
|----------------------|-----------------------------|


   e E  Q     H           W
|--8-------------------|----------------------|
|--8-------------------|----------------------|
|----------------------|----------------------|
|----------------------|----------------------|
|----------------------|----------------------|
|----------------------|----------------------|
|
|  E E  E  E  E E  E E    E E  E  E  E E  E E
|----------------------|----------------------|
|----------------------|----------------------|
|-12---12-12-12---12---|-12---12-12-12---12---|
|-12---12-12-11---11---|-12---12-12-11---11---|
|----------------------|----------------------|
|----------------------|----------------------|


                                     ~~~~~~~~~~
        |--3--|                                    |--3--|    |--3--|
   Q    E    +Q     +Q      e E    E E    +Q       E E   E a  E E   E
|---------------------------8---|--8-6b8==(6)r-----8------------------|
|-------6b8==(6)----(6)r----8-8-|--------------------8---6-4h=5-------|
|-------------------------------|-------------------------------5-----|
|-------------------------------|-----------------------------------5-|
|-------------------------------|-------------------------------------|
|-------------------------------|-------------------------------------|
|
|  E E  E         E  E   E  E E    E E     E    E  E   E      E   E
|-------------------------------|-------------------------------------|
|-------------------------------|-------------------------------------|
|-12---12--------12-12-----12---|-12------12---12-12---------12-------|
|-12---12--------12-11-----11---|-12------12---12-11---------11-------|
|-------------------------------|-------------------------------------|
|-------------------------------|-------------------------------------|


   Q    Q       E E  E E   a  E E  Q     E      +E   a     +Q
|-------6b8-----8----8-6-|-6s=8-8-11----11pb13r(11)-11b15-(11)----|
|-----------------8------|----------------------------------------|
|------------------------|----------------------------------------|
|------------------------|----------------------------------------|
|------------------------|----------------------------------------|
|------------------------|----------------------------------------|
|
|  E E  E    E  E E  E E      E E  E  E  E       E          E  E
|------------------------|----------------------------------------|
|------------------------|----------------------------------------|
|-12---12---12-12---12---|---12---12-12-12-----------------12-----|
|-12---12---12-11---11---|---12---12-12-11-----------------11-----|
|------------------------|----------------------------------------|
|------------------------|----------------------------------------|


  D7sus4              D7
                       ~~
   E      +E   +E   E  Q    Q
|-11b15==(11)r(11)--8--8---11--|
|------------------------------|
|------------------------------|
|------------------------------|
|------------------------------|
|------------------------------|
|
|  E       E    E   E  E E  Q
|------------------------------|
|-13-----------13--13-14---14--|
|-12-----------12--12-11---11--|
|-12-----------12--12-12---12--|
|------------------------------|
|------------------------------|


  D7sus4      D7                     D7sus4           D7
   e     E  E  E  E  E      Q         Q        +Q      Q    Q
|-11pb12-------8-11-11pb13-11pb14--|-11pb15r==(11)-----8-------*|
|----------------------------------|---------------------------*|
|----------------------------------|---------------------------*|
|----------------------------------|---------------------------*|
|----------------------------------|---------------------------*|
|----------------------------------|---------------------------*|
|
|  E     E  E  E  E  E      Q         E     E   E   E  E E  Q
|----------------------------------|---------------------------*|
|-13-------13-13-14--------14------|-13--------13--13-14---14--*|
|-12-------12-12-11--------11------|-12--------12--12-11---11--*|
|-12-------12-12-12--------12------|-12--------12--12-12---12--*|
|----------------------------------|---------------------------*|
|----------------------------------|---------------------------*|


Duration Legend
---------------
W - whole; H - half; Q - quarter; E - 8th; S - 16th; T - 32nd; X - 64th; a - acciaccatura
+ - note tied to previous; . - note dotted; .. - note double dotted
Uncapitalized letters represent notes that are staccato (1/2 duration)
Irregular groupings are notated above the duration line
Duration letters will always appear directly above the note/fret number it represents the
duration for.  Duration letters with no fret number below them represent rests.  Multi-
bar rests are notated in the form Wxn, where n is the number of bars to rest for.  Low
melody durations appear below the staff

Tablature Legend
----------------
 h   - hammer-on
 p   - pull-off
 b   - bend
 pb  - pre-bend
 r   - bend release (if no number after the r, then release immediately)
 /\  - slide into or out of (from/to "nowhere")
 s   - legato slide
 S   - shift slide
  - natural harmonic
[n]  - artificial harmonic
n(n) - tapped harmonic
 ~   - vibrato
 tr  - trill
 T   - tap
 TP  - trem. picking
 PM  - palm muting
\n/  - tremolo bar dip; n = amount to dip
 \n  - tremolo bar down
 n/  - tremolo bar up
/n\  - tremolo bar inverted dip
 =   - hold bend; also acts as connecting device for hammers/pulls
 <>  - volume swell (louder/softer)
 x   - on rhythm slash represents muted slash
 o   - on rhythm slash represents single note slash

Misc Legend
-----------
 |  - bar
||  - double bar
||o - repeat start
o|| - repeat end
*|  - double bar (ending)
 :  - bar (freetime)
 $  - Segno
 &  - Coda
Tempo markers -  = BPM(8/16=s8/s16), where s8 = swing 8ths, s16 = swing 16ths

Добавлено: 04.11.2015
Вам также может быть интересно:
Другие материалы по этой песне:

Страница создана 30.07.2012
http://primanota.ru/albert-king/the-hunter-chords.htm
Привет, Гость.
Предлагаем пройти революционный курс по гитаре.
Подарок от PrimaNota.Ru, забирай!