PrimaNota.ru - самый крупный в мире бесплатный архив песенных текстов, аккордов, табулатур и нот


Alan Parsons Project - No Answers Only Question (album) - таба, видео

Регистрация Запомнить меня
Войти через:  Facebook Google Twitter Vk Yandex Mail.ru

Alan Parsons Project - No Answers Only Question (album) - таба, видео

Печатать
Просмотров: 121
Diminuer

Imprimer

Envoyer


No Answers Only Questions the alan parsons project #3088166
Tablature No Answers Only Questions interprétée par rankxerox,Difficulté : 6/10 








No Answers Only Questions-The Alan Parsons Project


TablEdited by RankXerox
Post by Rock n' killer / julien.r

Posté par 

Capo V

 |       |       |       |        |       |       |       |        
|----------------0-------2-------|3-------------------3-----------|
|--------------------0-----------|------------1---------------1---|
|--------------------------------|--------2---------------2-------|
|--------------------------------|--------------------------------|
|--------------------------------|0---------------0---------------|
|--------------------------------|--------------------------------|
 
 |       |       |       |        |       |       |       |        
|2-------------------2-----------|--------------------------------|
|------------3-------------------|------------3---------------3---|
|--------2---------------2-------|--------0---------------0-------|
|--------------------------------|----4---------------4-----------|
|2---------------2---------------|--------------------------------|
|--------------------------------|0---------------0---------------|
 
 |       |       |       |        |       |       |       |        
|--------------------------------|--------------------------------|
|--------------------------------|--------0---------------0h--1---|
|--------------------------------|--------------------0-----------|
|2-------------------------------|--------0---------------0h--2---|
|--------------------------------|--------------------------------|
|----------------0-------2-------|3---------------3---------------|
 
 |       |       |       |        |       |       |       |        
|--------------------------------|--------2-----------2h--3-------|
|0-------------------0-----------|--------------------------------|
|------------0-------------------|--------2---------------2-------|
|--------0---------------0-------|0---------------0---------------|
|--------------------------------|--------------------------------|
|3---------------3---------------|--------------------------------|
 
 |       |       |       |        |       |       |       |        
|2-------------------------------|--------0-----------------------|
|--------------------3-----------|--------------------0-----------|
|--------2---------------2-------|--------------------------------|
|0---------------0---------------|--------2---------------2-------|
|--------------------------------|--------------------------------|
|--------------------------------|0---------------0---------------|
 
 |       |       |       |        |       |       |       |        
|--------2-----------------------|--------0-------------------0---|
|--------------------3-----------|--------------------1-----------|
|--------2---------------2-------|--------0---------------0-------|
|0---------------0---------------|--------------------------------|
|--------------------------------|3---------------3---------------|
|--------------------------------|--------------------------------|
 
 |       |       |       |        |       |       |       |        
|--------------------------------|--------------------------------|
|--------------------1-----------|--------0---------------0h--1---|
|--------0---------------0-------|--------------------0-----------|
|--------------------------------|--------0---------------0h--2---|
|3---------------3---------------|--------------------------------|
|--------------------------------|3---------------3---------------|
 
 |       |       |       |        |       |       |       |        
|--------------------------------|--------2-----------2h--3-------|
|0-------------------0-----------|--------------------------------|
|------------0-------------------|--------2---------------2-------|
|--------0---------------0-------|--------------------------------|
|--------------------------------|--------------------------------|
|3---------------3---------------|2---------------2---------------|
 
 |       |       |       |        |       |       |       |        
|2-------------------------------|--------0-----------------------|
|--------------------3-----------|--------------------0-----------|
|--------2---------------2-------|--------------------------------|
|0---------------0---------------|--------2---------------2-------|
|--------------------------------|--------------------------------|
|--------------------------------|0---------------0---------------|
 
 |       |       |       |        |       |       |       |        
|--------2-----------------------|--------0-------------------0---|
|--------------------3-----------|--------1---------------1-------|
|--------2---------------2-------|--------0-----------0-----------|
|0---------------0---------------|--------------------------------|
|--------------------------------|3---------------3---------------|
|--------------------------------|--------------------------------|
 
 |       |       |       |        |       |       |       |        
|--------0-------------------0---|--------0-------------------0---|
|--------1---------------1-------|--------1---------------1-------|
|--------0-----------0-----------|--------0-----------0-----------|
|--------------------------------|--------------------------------|
|3---------------3---------------|3---------------3---------------|
|--------------------------------|--------------------------------|
 
 |       |       |       |        |       |       |       |        
|--------2-------------------2---|--------3-------------------3---|
|--------3---------------3-------|--------0---------------0-------|
|--------2-----------2-----------|--------0-----------0-----------|
|0---------------0---------------|--------------------------------|
|--------------------------------|2---------------2---------------|
|--------------------------------|--------------------------------|
 
 |       |       |       |        |       |       |       |        
|--------------------------------|--------------------------------|
|--------0-------1-------3-------|--------------------1-----------|
|--------------------------------|------------0-------------------|
|--------------------------------|--------2---------------2-------|
|2---------------0-------2-------|3---------------3---------------|
|--------3-----------------------|--------------------------------|
 
 |       |       |       |        |       |       |       |        
|--------2-----------------------|--------------------------------|
|--------3-----------3-----------|--------5-------------------5---|
|--------2---------------2-------|--------------------4-----------|
|0---------------0---------------|--------4---------------4-------|
|--------------------------------|2---------------2---------------|
|--------------------------------|--------------------------------|
 
 |       |       |       |        |       |       |       |        
|--------------------------------|--------------------------------|
|4-------------------------------|------------0---------------0---|
|--------------------------------|--------------------0-----------|
|--------------------------------|--------2---------------2-------|
|2-------------------------------|--------------------------------|
|--------------------------------|0---------------0---------------|
 
 |       |       |       |        |       |       |       |        
|--------------------------------|--------------------------------|
|------------1---------------1---|------------0-------------------|
|--------------------2-----------|--------------------0-------0---|
|--------2---------------2-------|--------2---------------2-------|
|0---------------0---------------|--------------------------------|
|--------------------------------|0---------------0---------------|
 
 |       |       |       |        |       |       |       |        
|--------------------------------|--------------------------------|
|0-------------------0-----------|------------0---------------0---|
|------------0-------------------|--------------------0-----------|
|--------2---------------2-------|--------2---------------2-------|
|--------------------------------|--------------------------------|
|0---------------0---------------|0---------------0---------------|
 
 |       |       |       |        |       |       |       |        
|--------------------------------|--------------------------------|
|------------1---------------1---|--------5-------------------5---|
|--------------------2-----------|--------------------4-----------|
|--------2---------------2-------|--------4---------------4-------|
|0---------------0---------------|2---------------2---------------|
|--------------------------------|--------------------------------|
 
 |       |       |       |        |       |       |       |        
|--------------------------------|--------------------------------|
|4-------------------------------|--------------------0-----------|
|--------------------4-----------|------------0-------------------|
|--------4---------------4-------|--------0---------------0-------|
|2---------------2---------------|--------------------------------|
|--------------------------------|3---------------3---------------|
 
 |       |       |       |        |       |       |       |        
|--------------------------------|--------------------------------|
|--------------------3-----------|--------------------0-----------|
|------------2-------------------|------------0-------------------|
|--------0---------------0-------|--------2---------------2-------|
|--------------------------------|--------------------------------|
|2---------------2---------------|0---------------0---------------|
 
 |       |       |       |        |       |       |       |        
|--------------------0-----------|3-------------------------------|
|------------1-------------------|--------------------1-----------|
|--------0---------------0-------|------------2-------------------|
|--------------------------------|--------2---------------2-------|
|3---------------3---------------|0---------------0---------------|
|--------------------------------|--------------------------------|
 
 |       |       |       |        |       |       |       |        
|2-------------------2-----------|--------------------------------|
|------------3-------------------|------------3---------------3---|
|--------2---------------2-------|--------0---------------0-------|
|0---------------0---------------|----4---------------4-----------|
|--------------------------------|--------------------------------|
|--------------------------------|0---------------0---------------|
 
 |       |       |       |        |       |       |       |        
|--------------------------------|--------------------------------|
|--------------------------------|--------------------------------|
|--------------------------------|--------------------------------|
|2-------------------------------|--------------------------------|
|--------------------------------|--------------------------------|
|--------------------------------|----------------0-------2-------|
 
 |       |       |       |        |       |       |       |        
|--------------------------------|--------------------------------|
|--------0---------------0h--1---|0-------------------0-----------|
|--------------------0-----------|------------0-------------------|
|--------0---------------0h--2---|--------0---------------0-------|
|--------------------------------|--------------------------------|
|3---------------3---------------|3---------------3---------------|
 
 |       |       |       |        |       |       |       |        
|--------2-----------2h--3-------|2-------------------------------|
|--------------------------------|--------------------3-----------|
|--------2---------------2-------|--------2---------------2-------|
|0---------------0---------------|0---------------0---------------|
|--------------------------------|--------------------------------|
|--------------------------------|--------------------------------|
 
 |       |       |       |        |       |       |       |        
|--------0-----------------------|--------2-----------------------|
|--------------------0-----------|--------------------3-----------|
|--------------------------------|--------2---------------2-------|
|--------2---------------2-------|0---------------0---------------|
|--------------------------------|--------------------------------|
|0---------------0---------------|--------------------------------|
 
 |       |       |       |        |       |       |       |        
|--------0-------------------0---|--------------------------------|
|--------------------1-----------|--------------------1-----------|
|--------0---------------0-------|--------0---------------0-------|
|--------------------------------|--------------------------------|
|3---------------3---------------|3---------------3---------------|
|--------------------------------|--------------------------------|
 
 |       |       |       |        |       |       |       |        
|--------------------------------|--------------------------------|
|--------0---------------0h--1---|0-------------------0-----------|
|--------------------0-----------|------------0-------------------|
|--------0---------------0h--2---|--------0---------------0-------|
|--------------------------------|--------------------------------|
|3---------------3---------------|3---------------3---------------|
 
 |       |       |       |        |       |       |       |        
|--------2-----------2h--3-------|2-------------------------------|
|--------------------------------|--------------------3-----------|
|--------2---------------2-------|--------2---------------2-------|
|--------------------------------|0---------------0---------------|
|--------------------------------|--------------------------------|
|2---------------2---------------|--------------------------------|
 
 |       |       |       |        |       |       |       |        
|--------0-----------------------|--------2-----------------------|
|--------------------0-----------|--------------------3-----------|
|--------------------------------|--------2---------------2-------|
|--------2---------------2-------|0---------------0---------------|
|--------------------------------|--------------------------------|
|0---------------0---------------|--------------------------------|
 
 |       |       |       |        |       |       |       |        
|--------0-------------------0---|--------0-------------------0---|
|--------1---------------1-------|--------1---------------1-------|
|--------0-----------0-----------|--------0-----------0-----------|
|--------------------------------|--------------------------------|
|3---------------3---------------|3---------------3---------------|
|--------------------------------|--------------------------------|
 
 |       |       |       |        |       |       |       |        
|--------0-------------------0---|--------2-------------------2---|
|--------1---------------1-------|--------3---------------3-------|
|--------0-----------0-----------|--------2-----------2-----------|
|--------------------------------|0---------------0---------------|
|3---------------3---------------|--------------------------------|
|--------------------------------|--------------------------------|
 
 |       |       |       |        |       |       |       |        
|--------3-------------------3---|--------------------------------|
|--------0---------------0-------|--------0-------1-------3-------|
|--------0-----------0-----------|--------------------------------|
|--------------------------------|--------------------------------|
|2---------------2---------------|2---------------0-------2-------|
|--------------------------------|--------3-----------------------|
 
 |       |       |       |        |       |       |       |        
|--------------------------------|--------2-----------------------|
|--------------------1-----------|--------3-----------3-----------|
|------------0-------------------|--------2---------------2-------|
|--------2---------------2-------|0---------------0---------------|
|3---------------3---------------|--------------------------------|
|--------------------------------|--------------------------------|
 
 |       |       |       |        |       |       |       |        
|--------------------------------|--------------------------------|
|--------5-------------------5---|4-------------------------------|
|--------------------4-----------|--------------------------------|
|--------4---------------4-------|--------------------------------|
|2---------------2---------------|2-------------------------------|
|--------------------------------|--------------------------------|
 
 |       |       |       |        |       |       |       |        
|--------------------------------|--------------------------------|
|------------0---------------0---|------------1---------------1---|
|--------------------0-----------|--------------------2-----------|
|--------2---------------2-------|--------2---------------2-------|
|--------------------------------|0---------------0---------------|
|0---------------0---------------|--------------------------------|
 
 |       |       |       |        |       |       |       |        
|--------------------------------|--------------------------------|
|------------0-------------------|0-------------------0-----------|
|--------------------0-------0---|------------0-------------------|
|--------2---------------2-------|--------2---------------2-------|
|--------------------------------|--------------------------------|
|0---------------0---------------|0---------------0---------------|
 
 |       |       |       |        |       |       |       |        
|--------------------------------|--------------------------------|
|------------0---------------0---|------------1---------------1---|
|--------------------0-----------|--------------------2-----------|
|--------2---------------2-------|--------2---------------2-------|
|--------------------------------|0---------------0---------------|
|0---------------0---------------|--------------------------------|
 
 |       |       |       |        |       |       |       |        
|--------------------------------|--------------------------------|
|--------5-------------------5---|4-------------------------------|
|--------------------4-----------|--------------------4-----------|
|--------4---------------4-------|--------4---------------4-------|
|2---------------2---------------|2---------------2---------------|
|--------------------------------|--------------------------------|
 
 |       |       |       |        |       |       |       |        
|--------------------------------|--------------------------------|
|0-------------------0-----------|3-------------------3-----------|
|------------0-------------------|------------2-------------------|
|--------0---------------0-------|--------0---------------0-------|
|--------------------------------|--------------------------------|
|3---------------3---------------|2---------------2---------------|
 
 |       |       |       |        |       |       |       |        
|--------------------------------|0-------------------0-----------|
|0-------------------0-----------|------------1-------------------|
|------------0-------------------|--------0---------------0-------|
|--------2---------------2-------|--------------------------------|
|--------------------------------|3---------------3---------------|
|0---------------0---------------|--------------------------------|
 
 |       |       |       |        |       |       |       |        
|3-------------------3-----------|2-------------------2-----------|
|------------1---------------1---|------------3-------------------|
|--------2---------------2-------|--------2---------------2-------|
|--------------------------------|--------------------------------|
|0---------------0---------------|2---------------2---------------|
|--------------------------------|--------------------------------|
 
 |       |       |       |        |       |       |       |        
|--------------------------------|--------------------------------|
|------------3---------------3---|--------------------------------|
|--------0---------------0-------|--------------------------------|
|----4---------------4-----------|2-------------------------------|
|--------------------------------|--------------------------------|
|0---------------0---------------|--------------------------------|
 
 |       |       |       |        |       |       |       |        
|3-------------------3-----------|2-------------------2-----------|
|------------1---------------1---|------------3-------------------|
|--------2---------------2-------|--------2---------------2-------|
|--------------------------------|--------------------------------|
|0---------------0---------------|2---------------2---------------|
|--------------------------------|--------------------------------|
 
 |       |       |       |        |       |       |       |        
|--------------------------------|0-------------------------------|
|----------------0-----------0---|0-------------------------------|
|------------1-----------1-------|1-------------------------------|
|--------2-----------2-----------|2-------------------------------|
|----2---------------------------|2-------------------------------|
|0-------------------------------|0-------------------------------|
 


      '&'
       # 
       #
      _#_
     ( # )
     / O  
    ( === ) RX2012
     '---' 

http://fr.calameo.com/books/000332609f109d25695ab
http://fr.calameo.com/read/000332609f109d25695ab
Добавлено: 06.05.2014
Другие материалы по этой песне:
  • Аккорды и текст

Страница создана 06.05.2014
http://primanota.ru/alan-parsons-project/no-answers-only-question-album-chords.htm
Привет, Гость.
Предлагаем пройти революционный курс по гитаре.
Подарок от PrimaNota.Ru, забирай!