PrimaNota.ru - самый крупный в мире бесплатный архив песенных текстов, аккордов, табулатур и нот


Alan Parsons Project - I Wouldnt Want To Be Like You - текст песни, бас-таба, видео

Регистрация Запомнить меня
Войти через:  Facebook Google Twitter Vk Yandex Mail.ru

Alan Parsons Project - I Wouldnt Want To Be Like You - текст песни, бас-таба, видео

Печатать
Просмотров: 261
Авторы: Alan Parsons, Eric Woolfson
Авторы музыки: Alan Parsons, Eric Woolfson

I Wouldn't Want to Be Like You
Alan Parsons Project
Bass Tab
Bassist: David Paton

100BPM, 4/4

Intro

|---------|---------|---------|-----|
|---------|---------|---------|-----|
|---------|---------|---------|-----|
|---------|---------|---------|-----|
                                                   4x
||------------|-----------|-----------|------------||
||o-----------|-----------|-----------|-----------o||
||o-3-3-3-----|-3-3-3-----|-3-3-3-----|-3-3-3-----o||
||------------|-----------|-----------|------------||

|--------------|--------------|--------------|--------------|
|------35------|------3-------|------35------|------3-------|
|-3--6-------x-|-3--6--3----x-|-3--6-------x-|-3--6--3------|
|--------------|--------------|--------------|------------0-|

Verse 1&2

||---------------|--------------|--------------|--------------|
||o--------------|--------------|------35------|------3-------|
||o------13------|------1-----x-|-3--6-------x-|-3--6--3------|
||--1--4-------0-|-1--4--1------|--------------|------------0-|

|--------------|--------------|--------------|--------------|
|--------------|--------------|------35------|------3-------|
|------13------|------1-----x-|-3--6-------x-|-3--6--3----x-|
|-1--4-------0-|-1--4--1------|--------------|--------------|

|--------------|-------------|--------------|----------------|| *Miss second time
|------3-------|------5-3----|------35------|------3--------o||
|-3--6--3----x-|-3--6--------|-3--6-------x-|-3--6--3-------o||
|--------------|-------------|--------------|------------0*--||

Solo

|--------------|--------------|--------------|--------------|
|--------------|--------------|------35------|------35------|
|---------1-3--|---------1-3--|-3--3------3--|-3--3------3--|
|-1--1-14------|-1--1-14------|---------6----|---------6----|

|--------------|--------------|-------------|-------------|
|--------------|--------------|------35-----|------3------|
|---------1-3--|---------1-3--|-3--6--------|-3--6--3-----|
|-1--1-14------|-1--1-14------|-------------|-------------|

|-------------|--------------|---------------|-------------|
|------3------|------3-------|---------------|----3--------|
|-3--6--3-----|-3--6--3---01-|-3--3-3333-3-x-|-3----1-3----|
|-------------|--------------|---------------|-------------|

Verse

|--------------|--------------|--------------|--------------|
|--------------|--------------|------35------|------3-------|
|------13------|------1-----x-|-3--6-------x-|-3--6--3------|
|-1--4-------0-|-1--4--1------|--------------|------------0-|

|--------------|--------------|--------------|--------------|
|--------------|--------------|------35------|------3-------|
|------13------|------1-----x-|-3--6-------x-|-3--6--3----x-|
|-1--4-------0-|-1--4--1------|--------------|--------------|

|--------------|-------------|--------------|--------------|
|------3-------|------5-3----|------35------|------3-------|
|-3--6--3----x-|-3--6--------|-3--6-------x-|-3--6--3----x-|
|--------------|-------------|--------------|--------------|

|--------------|-------------|-----------|------------|
|------3-------|------5-3----|-----------|------------|
|-3--6--3----x-|-3--6--------|-3-3-3-----|-3-3-3------|
|--------------|-------------|-----------|------------|

Coda

|-----------|-----------|-----------|------------|
|-----------|-----------|-----------|------------|
|-3-3-3-----|-3-3-3-----|-3-3-3-----|-3-3-3------|
|-----------|-----------|-----------|------------|

|-----------|-----------|-----------|------------*|
|-----------|-----------|-----------|------------*|
|-3-3-3-----|-3-3-3-----|-3-3-3-----|-3-3-13-----*|
|-----------|-----------|-----------|------------*|
Добавлено: 01.03.2012
Другие материалы по этой песне:

Страница создана 01.03.2012
http://primanota.ru/alan-parsons-project/i-wouldnt-want-to-be-like-you-chords.htm
Привет, Гость.
Предлагаем пройти революционный курс по гитаре.
Подарок от PrimaNota.Ru, забирай!