PrimaNota.ru - самый крупный в мире бесплатный архив песенных текстов, аккордов, табулатур и нот


Alan Parsons Project - What Goes Up... - аккорды и текст, таба, видео

Регистрация Запомнить меня
Войти через:  Facebook Google Twitter Vk Yandex Mail.ru

Alan Parsons Project - What Goes Up... - аккорды и текст, таба, видео

Печатать
Просмотров: 183
Уроки эстрадного вокала в Санкт-Петербурге
Авторы: Alan Parsons, Eric Woolfson

What Goes Up...
Alan Parsons Project
What Goes Up?

tune low E string one half step up to “F”

      F5        Ab5/F              Eb5/F
E--------------------------------------------|
B--------------------------------------------|
G------5--5------8------------------3--3-----|
D------3--3------6------------------1--1-----|
A--------------------------------------------|
F------0----0----0----0----0----0---0----0---|
     
       F5
E--------------------------------------------|
B--------------------------------------------|
G------5--5----------------------------------|
D------3--3----------------------------------|
A--------------------------------------------|
F------0----0----0----0----0----0---0----0---|

       F5     Ab5/F   Eb/F      F5
E-------------------------------------|
B-------------------------------------|
G------5---5----8------3--3----5------|
D------3---3----6------1--1----3------|
A-------------------------------------|
F------0----0---0---0--0----0--0---0--|
     What goes up,    must come down


      F5      Ab5/F  Bb5/F  G5/F
E-------------------------------------|
B-------------------------------------|
G-----5---5------8-----10---7---------|
D-----3---3------8-----8----5---------|
A-------------------------------------|
F-----0------0------0-------0-----0---|
   What must   rise,  must fall    and


     F5        Ab5/F  Eb5/F    F5
     what goes on     in your life

F5         Ab5/F Bb5/F  C
Is writing on    the    wall

                   Dm/C              G/C        C
If all things must fall, why build a miracle at all?

                   Dm/C         G/C           C
If all things must pass, even a miracle won't last

F5        Ab5/F  Eb/F      F5
What goes up,    must come down

F5        Ab5/F Bb5/F G5/F
What must stand a     lone

    F5        Ab5/F  Eb5/F   F5
And what goes on     in your mind

   F5      Ab5/F Bb5/F  C
Is turning in    to     stone

                   Dm/C              G/C        C
If all things must fall, why build a miracle at all?

                   Dm/C         G/C           C
If all things must pass, even a pyramid won't last


guitar solo with:

       F5     Ab5/F   Eb/F      F5
E-------------------------------------|
B-------------------------------------|
G------5---5----8------3--3----5------|
D------3---3----6------1--1----3------|
A-------------------------------------|
F------0----0---0---0--0----0--0---0--|

     
      F5      Ab5/F  Bb5/F  G5/F
E-------------------------------------|
B-------------------------------------|
G-----5---5------8-----10---7---------|
D-----3---3------8-----8----5---------|
A-------------------------------------|
F-----0------0------0-------0-----0---|


       F5     Ab5/F   Eb/F      F5
E-------------------------------------|
B-------------------------------------|
G------5---5----8------3--3----5------|
D------3---3----6------1--1----3------|
A-------------------------------------|
F------0----0---0---0--0----0--0---0--|

     
      F5      Ab5/F  Bb5/F  
E-----------------------------|
B-----------------------------|
G-----5---5------8-----10-----|
D-----3---3------8-----8------|
A-----------------------------|
F-----0------0------0---------|


 
|C           |Dm/C         |G/C         |C             |


|C           |Dm/C         |G/C         |C             |


|Eb          |Ab/Eb        |Bb/Eb       |Eb            |


|Eb          |Ab/Eb        |Bb/Eb       |Eb            |


Ebm7              Ab/Eb
How can you be so sure

B/D#                       C#/Eb
How will you know what the end will endure?

B/D#              C#/Eb
How can you be so sure

         B/D#                        C#/Eb
That the wonders you've made in your life will be seen

       B/D#                      C#/Eb                  Eb
By the millions who'll follow to visit the site of your dream?

F5        Ab5/F
What goes up...

Eb5/F     F5
Must come down...

F5         Ab5/F
What goes 'round...

Eb5/F      F
Must come 'round...

F5          Ab5/F
What's been lost...

Eb5/F   F5
Must be found...

orchestra:

Csus4  C    Eb. . . . . . . . . . . . . . 
F5       Fm7
Добавлено: 03.04.2012
Другие материалы по этой песне:

Страница создана 03.04.2012
http://primanota.ru/alan-parsons-project/what-goes-up-chords.htm
Привет, Гость.
Предлагаем пройти революционный курс по гитаре.
Подарок от PrimaNota.Ru, забирай!