PrimaNota.ru - самый крупный в мире бесплатный архив песенных текстов, аккордов, табулатур и нот


Air - Left Bank - текст песни, таба, видео

Регистрация Запомнить меня
Войти через:  Facebook Google Twitter Vk Yandex Mail.ru

Air - Left Bank - текст песни, таба, видео

Печатать
Просмотров: 157
Авторы музыки: Nicolas Godin, Jean-Benoît Dunckel
Авторы текста: Nicolas Godin, Jean-Benoît Dunckel
-------------------------------------------------------------------------------
			     LEFT BANK - Air
-------------------------------------------------------------------------------
Tabbed by:Max Reverb
Email:happyhappyjihad@yahoo.de

Tuning: EADGBE

INTRO:

e|--|
B|--|
G|--|
D|--|
A|7-|
E|0-|

e|----|
B|----|
G|----|
D|6---|
A|6/7-|
E|0---|

MAIN RIFF:
e|-------------------------------|
B|-------------------------------|
G|----------------7---9---9---7--|
D|----5---7-/-9---9---7---7---7--|
A|7---7---7-/-7---9---9---9---9--|
E|0---0---0---0-------7---7---7--|


A                          A
Left Bank, I'm Waiting For Someone
              e(then MAIN RIFF 1x)
Someone To Be My Friend
A                          A
Outside, Traffic's Running Slowly
              e(then MAIN RIFF 1x)
I Hear It From My Window

        A (3rd)          e(then MAIN RIFF 1x)
Without You, I'm Getting Lost
        A (3rd)          e(then MAIN RIFF 1x)
Without You, There's No Release


e|------------------|
B|------------------|
G|------------------|
D|----5---7---5---9-|
A|7---7---6---6-/-7-|
E|0---0---0---0-----|
I Can't Hold The Sun

e|------------------|
B|------------------|
G|------------------|
D|----5---7---5---6-|
A|7---7---6---6---7-|
E|0---0---0---0-----|
I Can't Hold The Sun

It's Raining, Love Is Not Around Me
How Can It Get Soak?
Homesick, This Is How I Feel Now
This Is How You Left Me

Without You, I'm Getting Lost
Without You, There's No Release
I Can't Hold The Sun
I Can't Hold The Sun

Without You, I'm Getting Lost
Without You, There's No Release
I Can't Hold The Sun
I Can't Hold The Sun

| /  slide up
| \  slide down
| h  hammer-on
| p  pull-off
| ~  vibrato
| +  harmonic
| x  Mute note
===============================================================================
Добавлено: 17.06.2013
Другие материалы по этой песне:
  • Аккорды и текст

Страница создана 08.03.2012
http://primanota.ru/air/left-bank-chords.htm
Привет, Гость.
Предлагаем пройти революционный курс по гитаре.
Подарок от PrimaNota.Ru, забирай!