PrimaNota.ru - самый крупный в мире бесплатный архив песенных текстов, аккордов, табулатур и нот


Air - Mer Du Japon - текст песни, бас-таба, видео

Регистрация Запомнить меня
Войти через:  Facebook Google Twitter Vk Yandex Mail.ru

Air - Mer Du Japon - текст песни, бас-таба, видео

Печатать
Просмотров: 187
Авторы музыки: Nicolas Godin, Jean-Benoît Dunckel
Авторы текста: Nicolas Godin, Jean-Benoît Dunckel
Artist: AIR
Song: Mer Du Japon
Album: Pocket Symphony
Year: 2007
Tuning: Standard

This is my first tab and it's by the brilliant French duo AIR from their stunningly 
album Pocket Symphony. Hope you enjoy it!

~Intro/Verse~

G-----------------------------------------------------------|
D-----------------------------------------------------------|
A-1-333--1-333--1-333--1-333--------------------------------|
E-----------------------------8-666--8-666--8-666--8-666----|

G-----------------------------------------------------------|
D-----------------------------1-333--1-333--1-333--1-333----|
A-1-333--1-333--1-333--1-333--------------------------------|
E-----------------------------------------------------------|

~Chorus~

G-----------------------------------------------------------|
D-------111-------------------------------------------------|
A-33333-----------------------------------------------------|
E-----------44444-333-11111111-11111111---------------------|

~Interlude~

As far as I can tell there is no bass in this part of the song!

Near the end of the interlude the bass fades back in with the chorus riff starting 
around here...

G---------------------------------------------------------|
D---------------------------------------------------------|
A---------------------------------------------------------|
E-44444--333--11111111-11111111---------------------------|

~Outro~

G---------------------------------------------------------|
D---------------------------------------------------------|
A--3------------------------------------------------------|
E---------------------------------------------------------|

*Song Order:

Intro/Verse Riff x2
Chorus Riff      x2
Intro/Verse Riff x2
Chorus Riff      x2
Interlude
Chorus Riff      x4
Outro
Добавлено: 28.10.2013
Другие материалы по этой песне:
  • Аккорды и текст

Страница создана 12.07.2012
http://primanota.ru/air/mer-du-japon-chords.htm
Привет, Гость.
Предлагаем пройти революционный курс по гитаре.
Подарок от PrimaNota.Ru, забирай!