PrimaNota.ru - самый крупный в мире бесплатный архив песенных текстов, аккордов, табулатур и нот


Agnostic Front - I Had Enough - текст песни, таба, видео

Регистрация Запомнить меня
Войти через:  Facebook Google Twitter Vk Yandex Mail.ru

Agnostic Front - I Had Enough - текст песни, таба, видео

Печатать
Просмотров: 163
I had enough - Agnostic Front
really easy but also extremly fast

Intro

e:------------------|
b:------------------|
G:-------------7----|
D:-9-9-99-9-7-77--7-| 4 times
A:-9-9-99-9-7-75--7-|
E:-7-7-77-7-5-5---5-|

Verse
There comes the bass without guitar
Then again:

e:------------------|
b:------------------|
G:-------------7----|
D:-9-9-99-9-7-77--7-| 4 times
A:-9-9-99-9-7-75--7-|
E:-7-7-77-7-5-5---5-|

Chorus
e:---------------------------------------------------------------|
b:---------------------------------------------------------------|
G:-----------------------------------------7----------------7----| 2 times
D:-6--5--6-------8--7--8-------9-9-99-9-7-77--7-9-9-99-9-7-77--7-|
A:-6--5--6-------8--7--8-------9-9-99-9-7-75--7-9-9-99-9-7-75--7-|
E:-4--3--4-------6--5--6-------7-7-77-7-5-5---5-7-7-77-7-5-5---5-|

verse

chorus

Bridge
e:-------------------------------------------------------|
b:-------------------------------------------------------|
G:-------------------------------------------------------|
D:-9----------7----------5----------7--------------------|
A:-9----------7----------5----------7--------------------|
E:-7----------5----------3----------5--------------------|

e:------------------|
b:------------------|
G:------------------| 4 times
D:-9--7--9---7-9-10-|
A:-9--7--9---7-9-10-|
E:-7--5--7---5-7-8--|


Then again the Intro
Добавлено: 17.05.2012
Другие материалы по этой песне:

Страница создана 17.05.2012
http://primanota.ru/agnostic-front/i-had-enough-chords.htm
Привет, Гость.
Предлагаем пройти революционный курс по гитаре.
Подарок от PrimaNota.Ru, забирай!