PrimaNota.ru - самый крупный в мире бесплатный архив песенных текстов, аккордов, табулатур и нот


Agnostic Front - Somethings Gotta Give - аккорды и текст, таба, видео

Регистрация Запомнить меня
Войти через:  Facebook Google Twitter Vk Yandex Mail.ru

Agnostic Front - Somethings Gotta Give - аккорды и текст, таба, видео

Печатать
Просмотров: 219
Уроки эстрадного вокала в Санкт-Петербурге
Somethings Gotta Give
Agnostic Front
BAND : AGNOSTIC FRONT
SONG : SOMETHINGS GOTTA GIVE
TABBED BY : QUINCY SLOAN
 
VERSE - listen to the record
E :--------------------------------------------
B :--------------------------------------------
G :-----------------5--9--7-7-7-7--------------
D :-7-7--7--7-7--7--5--9--7-7-7-7--------------
A :-7-7--7--7-7--7--3--7--5-5-5-5--------------
E :-5-5--5--5-5--5-----------------------------

CHORUS
E :--------------------------------------------------------
B :--------------------------------------------------------
G :-5-5--5--5-5--5------------------9-9--9--9-9--9---------
D :-5-5--5--5-5--5--7-7--7--7-7--7--9-9--9--9-9--9---------
A :-3-3--3--3-3--3--7-7--7--7-7--7--7-7--7--7-7--7---------
E :-----------------5-5--5--5-5--5-------------------------

BREAKDOWN
E :------------------------------------
B :------------------------------------
G :-9--7--5--7--5--4-------------------
D :-9--7--5--7--5--4-------------------
A :-7--5--3--5--3--2-------------------
E :------------------------------------

EXTRA RIFF - play with a little palm muting
E :---------------------------------------------
B :---------------------------------------------
G :-2-2-2-2-2-2-2-2--4-4-4-5-5-5-5-5------------
D :-2-2-2-2-2-2-2-2--4-4-4-5-5-5-5-5------------
A :-0-0-0-0-0-0-0-0--2-2-2-3-3-3-3-3------------
E :---------------------------------------------
Добавлено: 19.02.2014
Другие материалы по этой песне:

Страница создана 11.07.2012
http://primanota.ru/agnostic-front/somethings-gotta-give-chords.htm
Привет, Гость.
Предлагаем пройти революционный курс по гитаре.
Подарок от PrimaNota.Ru, забирай!