PrimaNota.ru - самый крупный в мире бесплатный архив песенных текстов, аккордов, табулатур и нот


After The Burial - Cursing Akhenaten - таба, видео

Регистрация Запомнить меня
Войти через:  Facebook Google Twitter Vk Yandex Mail.ru

After The Burial - Cursing Akhenaten - таба, видео

Печатать
Просмотров: 81
-------------------------------------------------------------------------------
                             SONG NAME - Band Name
-------------------------------------------------------------------------------
Tabbed by: vblaqk
E-mail: michaeltamkee@ymail.com
Taken from After The Burial's 12 Days of Riffmas.
Accurate tab verified by the band.
Lots of the rest of the song requires an 7/8 string guitar.
Tuning: Half Step Down - Ab Eb Ab Db Gb Bb Eb
        
This is Trent's part from 0:47 - 1:11
                                                         T
e|-------------9h10p9p0---9-10-9---10/13---12h13p12\10h12p10\9---17p9--------|
B|---------10----------------------------------------------------------------|
G|-------9-------------------------------------------------------------------|
D|----11---------------------------------------------------------------------|
A|--0------------------------------------------------------------------------|
E|---------------------------------------------------------------------------|

e|---------------------------------------------------------------------------|
B|--11---14/15\14p11p10------11--10------------------------------------------|
G|-----------------------12----------10/12--10------9h10p9\7-----------------|
D|----------------------------------------------12------------11-------------|
A|---------------------------------------------------------------------------|
E|---------------------------------------------------------------------------|



************************************

| /   slide up
| \   slide down
| h   hammer-on
| p   pull-off
| ~   vibrato
| +   harmonic
| x   Mute note
| b   Bend
| pb  Pre-bend
| br  Bend release
| pbr Pre-bend release
| brb Bend release bend
| T   Tap with pick hand
************************************
Добавлено: 08.08.2015
Другие материалы по этой песне:

Страница создана 27.04.2012
http://primanota.ru/after-the-burial/cursing-akhenaten-chords.htm
Привет, Гость.
Предлагаем пройти революционный курс по гитаре.
Подарок от PrimaNota.Ru, забирай!