PrimaNota.ru - самый крупный в мире бесплатный архив песенных текстов, аккордов, табулатур и нот


After The Burial - My Frailty - таба, видео

Регистрация Запомнить меня
Войти через:  Facebook Google Twitter Vk Yandex Mail.ru

After The Burial - My Frailty - таба, видео

Печатать
Просмотров: 80
 
Song: My Frailty
Artist: After the Burial
Tabbed by Lorcan Ward
Solo starts at 2:58

My Guitar Cover:
http://www.youtube.com/watch?v=bQkrRZGkpeQ

Tuning Eb Standard

Justin:
|----------------------------------------------------------------------|
|----------------------------------------------------------------------|
|--0-0-0-0-0-4p0-0-0-5p0-0-0-7p0-0-0-5p0-0-0-4p0-5p0-0-0-4p0-0-0-------|
|----------------------------------------------------------------------|
|----------------------------------------------------------------------|
|----------------------------------------------------------------------|

|----------------------------------------------------------------------|
|----------------------------------------------------------------------|
|--5p0-0-0-4p0-0-0-4p0-5p0-0-0-7p0-0-0-5p0-0-0-4p0-0-0-5p0-0-0-4~~~----|
|----------------------------------------------------------------------|
|----------------------------------------------------------------------|
|----------------------------------------------------------------------|

  All tremolo picked
|---------------------------------------------------19--20--22--24\----|
|--15--20--19--17--15--17--15--13--12--/19--20--22---------------------|
|----------------------------------------------------------------------|
|----------------------------------------------------------------------|
|----------------------------------------------------------------------|
|----------------------------------------------------------------------|


Trent:
|---------------------------------------------------------------------------|
|---------------------------------------------------------------------------|
|--------------------------------------------------------12-14-17-12h14h17--|
|--------------------------------------12-14-17-12h14h17--------------------|
|--------------------10-12-15-10h12h15--------------------------------------|
|--10-12-15-10h12h15--------------------------------------------------------|

|--------------------15h17h20p17p15-----------------------------------------|
|--15-17-20-15h17h20-----------------20-20-17-15h17p15----------------------|
|------------------------------------------------------17-17-14----14-------|
|---------------------------------------------------------------17----17----|
|---------------------------------------------------------------------------|
|---------------------------------------------------------------------------|

|---------------------------------------------------------------------------|
|---------------------------------------------------------------------------|
|--14-14----14---------------17~~~------------------------------------------|
|--------17----17-14--14/17----------17/19---------17--------12----12h14----|
|-------------------------------------------17\15-----15\12-----12-------15-|
|---------------------------------------------------------------------------|

|-----------------12h15/19p15-----------------------------------------------|
|--------------13-------------17--(17)\13--13--13--12--(12)-----------------|
|-----------12------------------------------------------12----(12)\---------|
|--------14-----------------------------------------------------------------|
|--12h15--------------------------------------------------------------------|
|---------------------------------------------------------------------------|

|----------------5-----------------------------------------------------|
|--8-----8----------8---------------PH--PH------------PH---------------|
|--7b8------7b8--------pb8r7--5--7--7---7b8r7---5--7--7b8r7------------|
|----------------------------------------------------------------------|
|----------------------------------------------------------------------|
|----------------------------------------------------------------------|

|--------------------------/-/-20-17-15-17-15--------------------------|
|--------PH-------------------------------------20-17-15-17-15---------|
|--5--7--7b8r7---------------------------------------------------------|
|----------------5-----------------------------------------------------|
|----------------------------------------------------------------------|
|----------------------------------------------------------------------|

|--20-17-15-17-15------------------20-17-15-17-15--20-19-17-19-17------|
|------------------20-17-15-17-15--------------------------------------|
|----------------------------------------------------------------------|
|----------------------------------------------------------------------|
|----------------------------------------------------------------------|
|----------------------------------------------------------------------|

|--20b22r20---20-17------------------------------------|
|-------------------20-17-20------17-------------------|
|-----------------------------19------19p17------------|
|-------------------------------------------19~~~------|
|------------------------------------------------------|
|------------------------------------------------------|

|--12p8---------8h12p8---------8h12p8----8-|
|-------10---10--------10---10--------10---|
|----------9--------------9----------------|
|------------------------------------------|
|------------------------------------------|
|------------------------------------------|
|------------------------------------------|
 
|--12p8---------8h12p8---------8h12p8----8-|
|-------10---10--------10---10--------10---|
|----------9--------------9----------------|
|------------------------------------------|
|------------------------------------------|
|------------------------------------------|
|------------------------------------------|
 
|--17p13----------13h17p13----------13h17p13----13-|
|--------15----15----------15----15----------15----|
|-----------14----------------14-------------------|
|--------------------------------------------------|
|--------------------------------------------------|
|--------------------------------------------------|
|--------------------------------------------------|
 
|--17p13----------13h17p13----------13h17p13----13-|
|--------15----15----------15----15----------15----|
|-----------14----------------14-------------------|
|--------------------------------------------------|
|--------------------------------------------------|
|--------------------------------------------------|
|--------------------------------------------------|

|--8p5-------5h8p5-------5h8p5---5-|--8p5-------5h8p5-------5h8p5---5-|
|------6---6-------6---6-------6---|------6---6-------6---6-------6---|
|--------5-----------5-------------|--------5-----------5-------------|
|----------------------------------|----------------------------------|
|----------------------------------|----------------------------------|
|----------------------------------|----------------------------------|
|----------------------------------|----------------------------------|
 
|--7p4-------4h7p4-------4h7p4---4-|--10p7-------7h10p7-------7h10p7-----|
|------5---5-------5---5-------5---|-------8---8--------8---8--------8---|
|--------4-----------4-------------|---------7------------7------------7-|
|----------------------------------|-------------------------------------|
|----------------------------------|-------------------------------------|
|----------------------------------|-------------------------------------|
|----------------------------------|-------------------------------------|

|---------------------12------13---------------------------------------|
|--------------12h13--------------/15-------------/17~~----------------|
|--10--12--14----------------------------------------------------------|
|----------------------------------------------------------------------|
|----------------------------------------------------------------------|
|----------------------------------------------------------------------|

|--12p8---------8h12p8--------------------8h12/17~~--------------------|
|-------10---10--------10--------------10------------------------------|
|----------9--------------9----------9---------------------------------|
|---------------------------10----10-----------------------------------|
|------------------------------12--------------------------------------|
|----------------------------------------------------------------------|
Добавлено: 08.08.2015
Другие материалы по этой песне:

Страница создана 24.04.2012
http://primanota.ru/after-the-burial/my-frailty-chords.htm
Привет, Гость.
Предлагаем пройти революционный курс по гитаре.
Подарок от PrimaNota.Ru, забирай!