PrimaNota.ru - самый крупный в мире бесплатный архив песенных текстов, аккордов, табулатур и нот


AFI - Too Late For Gods - текст песни, таба, видео

Регистрация Запомнить меня
Войти через:  Facebook Google Twitter Vk Yandex Mail.ru

AFI - Too Late For Gods - текст песни, таба, видео

Печатать
Просмотров: 223
Уроки эстрадного вокала в Санкт-Петербурге
Artist: AFI
Song: Too Late for Gods
Album: Crash Love
Guitarist: Jade Puget
Tuning: e-flat tuning
Tabbed by: Grant Webster - tnarg_w@hotmail.com

Best song off the new release imo. Not perfect but pretty close.

[intro] - clean guitar
eb|--------|         |-9------9------11------12------12------14------11------9-|
Bb|-9------|         |---------------------------------------------------------|
Gb|---9----|         |---9------9-------9-------9-------9-------9-------9------|
Db|-----11-|         |-----11-----11------11------11------11------11------11---|
Ab|--------|         |---------------------------------------------------------|
Eb|--------| x8 then |---------------------------------------------------------| then

eb|--------|         |----------------------------------------------------|
Bb|-9------|         |-10------9---------9------9---10------9-------------|
Gb|---9----|         |----9------9---------9------9----9------9----9/11\9-|
Db|-----11-|         |------11-----11-11-----11----------11-----11-x/-x\x-|
Ab|--------|         |---------------------------------------------7/-9\7-|
Eb|--------| x6 then |---------------------------------------------0--0-0-|


[verse 1] - clean guitar
eb|--------|         |------------------------------------------------|
Bb|-9------|         |-9------9h10------9------9------10------10------|
Gb|---9----|         |---9---------9------9------9-------9-------9----|
Db|-----11-|         |-----11--------11-----11-----11------11------11-|
Ab|--------|         |------------------------------------------------|
Eb|--------| x8 then |------------------------------------------------| then

[verse 1 cont.] - distortion on
eb|-7-7-|      |-------------------------------------------------------------|
Bb|-7-7-|      |-------------------------------------------------------------|
Gb|-8-8-|      |-------------------------------------------------------------|
Db|-9-9-|      |-11-11------11--9-9-9-9/11-11-11-7-7------7-7------6-6-9-9-9-|
Ab|-9-9-|      |-11-11-xxxx-11--9-9-9-9/11-11-11-7-7-xxxx-7-7-xxxx-6-6-9-9-9-|
Eb|-7-7-| then |-9--9--xxxx-9---7-7-7-7/9--9--9--5-5-xxxx-5-5-xxxx-4-4-7-7-7-| x2 then
    . (grad build up)  ....                          ....     ....
                       ,,,,                          ,,,,     ,,,,

[verse 1 cont.]  - there is a highly distorted part before this section that I haven't tabbed
eb|-5~-7-7-|
Bb|-5~-7-7-|
Gb|-6~-8-8-|
Db|-7~-9-9-|
Ab|-7~-9-9-|
Eb|-5~-7-7-|
       . (grad build up)

[chorus] - distortion on (number of strums not specified)
eb|-9--7-5---------------------7-5-7-------------9--7-5---------------------7-5-7-|
Bb|-9--7-5---------------------9-5-7-------------9--7-5---------------------9-5-7-|
Gb|-9--8-6---------------------9-6-8-------------9--8-6---------------------9-6-8-|
Db|-11-9-7---------9-9---------9-7-9----------6--11-9-7---------9-9---------9-7-9-|
Ab|-11-9-7-----7-7-----7-7-----7-7-9-----7-7-----11-9-7-----7-7-----7-7-----7-7-9-|
Eb|-9--7-5-5-5-------------5-5-7-5-7-9-9---------9--7-5-5-5-------------5-5-7-5-7-|

[verse 2 intro] - slight distortion
eb|-------------------------------------------------------------------------------|
Bb|------9------9-----------9------9-------------9------9-------------9--------10-|
Gb|----9---9------9-------9---9------9---------9---9------9---------9---9----9----|
Db|-11-------11-----11-11-------11-----11-9-11-------11-----11-9-11-------11------|
Ab|-------------------------------------------------------------------------------|
Eb|-------------------------------------------------------------------------------|

[verse 2] - distortion on (number of strums not specified )
eb|-------------------------------------------------------|
Bb|-------------------------------------------------------|
Gb|-9-8-9-13-14-13-11-9-11-8-13-14-13-11-13-9--14-16-9/11-|
Db|-9-9-9-9--9--9--9--9-9--9-11-11-11-11-11-11-14-14-x/-x-|
Ab|--------------------------------------------------7/-9-|
Eb|-------------------------------------------------------|
    . . . .  .  .  .  . . .  .  .  .  .  .  .  .  .

[verse 2 cont.] - distortion on
eb|-------------------------------------------------------------|
Bb|-------------------------------------------------------------|
Gb|-------------------------------------------------------------|
Db|-11-11------11--9-9-9-9/11-11-11-7-7------7-7------6-6-9-9-9-|
Ab|-11-11-xxxx-11--9-9-9-9/11-11-11-7-7-xxxx-7-7-xxxx-6-6-9-9-9-|
Eb|-9--9--xxxx-9---7-7-7-7/9--9--9--5-5-xxxx-5-5-xxxx-4-4-7-7-7-| then
          ....                          ....     ....
          ,,,,                          ,,,,     ,,,,

eb|------------------------------------5-9-9-|
Bb|------------------------------------5-9-9-|
Gb|-------------------------------9h11-6-8-8-|
Db|-11-11------11--9-9-9---------------7-9-9-|
Ab|-11-11-xxxx-11--9-9-9-----9h11------7-9-9-|
Eb|-9--9--xxxx-9---7-7-7-7h9-----------5-7-7-|
          ....                           . (grad build up)
          ,,,,

[chorus] - distortion
eb|-9--7-5---------------------7-5-7------------9--7-5---------------------7-5-7-|
Bb|-9--7-5---------------------9-5-7------------9--7-5---------------------9-5-7-|
Gb|-9--8-6---------------------9-6-8------------9--8-6---------------------9-6-8-|
Db|-11-9-7---------9-9---------9-7-9----------6-11-9-7---------9-9---------9-7-9-|
Ab|-11-9-7-----7-7-----7-7-----7-7-9-----7-7----11-9-7-----7-7-----7-7-----7-7-9-|
Eb|-9--7-5-5-5-------------5-5-7-5-7-9-9--------9--7-5-5-5-------------5-5-7-5-7-|

[bridge] - clean guitar
eb|----------------------------------------------------|
Bb|------9----------7---------7---------5------------9-|
Gb|----9---9------8-----8-8-------6-6--------9----9----|
Db|-11-------11-9----9------9---7-----7---11---11------|
Ab|----------------------------------------------------|
Eb|----------------------------------------------------|

[bridge cont.]
eb|--------9-----------7---------------------|
Bb|------9---9-------7-----------7---------5-|
Gb|----9-------9---8-------8-8-------6-6-----|
Db|-11-----------9-------9-----9---7-----7---|
Ab|------------------------------------------|
Eb|------------------------------------------|


[end of bridge] - distortion on (number of strums not specified, listen for chord changes)
eb|----9--11-7-5-9-----7-5-7-7-|
Bb|----9--12-7-5-9-----7-5-7-7-|
Gb|----9--13-8-6-9--13-8-6-8-8-|
Db|-11-11-13-9-7-11--x-9-7-9-9-|
Ab|-11-11-11-9-7-11-11-9-7-9-9-|
Eb|-9--9--11-7-5-9-----7-5-7-7-|
    . (grad build up)      . (build up)

[last chorus] - distortion on
eb|-9~--7~-5---------------------7-5-7-------------9--7-5------------------7-5-------|
Bb|-9~--7~-5---------------------9-5-7-------------9--7-5------------------9-5-------|
Gb|-9~--8~-6---------------------9-6-8-------------9--8-6-------------9/11-9-6-4-6-8-|
Db|-11~-9~-7---------9-9---------9-7-9----------6--11-9-7---------9-9------9-7-x-x-x-|
Ab|-11~-9~-7-----7-7-----7-7-----7-7-9-----7-7-----11-9-7-----7-7----------7-7-2-4-6-|
Eb|-9~--7~-5-5-5-------------5-5-7-5-7-9-9---------9--7-5-5-5--------------7-5-------|

eb|-9--7-5---------------------7-5-7-------------9--7-5------------------7-5-7------|
Bb|-9--7-5---------------------9-5-7-------------9--7-5------------------9-5-7------|
Gb|-9--8-6---------------------9-6-8-------------9--8-6-------------9/11-9-6-8------|
Db|-11-9-7---------9-9---------9-7-9----------6--11-9-7---------9-9------9-7-9------|
Ab|-11-9-7-----7-7-----7-7-----7-7-9-----7-7-----11-9-7-----7-7----------7-7-9------|
Eb|-9--7-5-5-5-------------5-5-7-5-7-9-9---------9--7-5-5-5--------------7-5-7-7/9~-|


Key:
h=hammer on
p=pull off
.=palm mute
~=let ring
x=mute note
/=slide up
\=slide down
,=tremolo
Добавлено: 11.06.2012
Другие материалы по этой песне:

Страница создана 03.05.2012
http://primanota.ru/afi/too-late-for-gods-chords.htm
Привет, Гость.
Предлагаем пройти революционный курс по гитаре.
Подарок от PrimaNota.Ru, забирай!