PrimaNota.ru - самый крупный в мире бесплатный архив песенных текстов, аккордов, табулатур и нот


AFI - I Am Trying Very Hard To Be Here - текст песни, таба, видео

Регистрация Запомнить меня
Войти через:  Facebook Google Twitter Vk Yandex Mail.ru

AFI - I Am Trying Very Hard To Be Here - текст песни, таба, видео

Печатать
Просмотров: 201
Авторы: David Marchand, Adam Carson, Hunter Burgan, Jade Puget

One Of The Best Songs From Crash Love
Some Parts Im Not So Sure about But I Know That Most Of its Right
Most Of Its Not The Lead Guitar
But yea Here It Is


Intro/Verse
------------------------------------------------|
------------------------------------------------|
--------------------7-6---------------------7-9-|
-9-9--7---7h9-9-----x-x--9-9--7---7h9-9-----x-x-|
---------------(2x)-5-4----------------(2x)-5-7-|
----7---7--------------------7--7---------------|
Use Bar Chords If You Like
-----------------------------------|
-----------------------------------|
-----------------------------12-11-|
-9-7-5-2--------------9-7-6--x--x--|
-9-7-5-2--Second Time-9-7-6--10-9--|
-7-5-3-0--------------7-5-4--------|

FLASH FLASH
---------------------------------|
---------------------------------|
---------------7-9---------------|
-9-5-2-7---9-5-7-9---------------|
-9-5-2-7---9-5-5-7---------------|
-7-3-0-5---7-3-------------------|

----------------------------|
----------------------------|
-------9-12-11--------12-11-|
-------9-x--x-------9-12-11-|
-------7-10-9--Then-9-10-9--|
-0-0-0-7------------7-------|

Then Play the Intro
And so On And So On

Its Kinda Cheap i Know But You know
How its all Played And Stuff
"Darling i Want to Destroy you"
Coming Soon To Ultimate-Guitar Near You!
Lol
Добавлено: 27.05.2012
Другие материалы по этой песне:
  • Аккорды и текст

Страница создана 13.04.2012
http://primanota.ru/afi/i-am-trying-very-hard-to-be-here-chords.htm
Привет, Гость.
Предлагаем пройти революционный курс по гитаре.
Подарок от PrimaNota.Ru, забирай!