PrimaNota.ru - самый крупный в мире бесплатный архив песенных текстов, аккордов, табулатур и нот


AFI - Endlessy She Said - бас-таба, видео

Регистрация Запомнить меня
Войти через:  Facebook Google Twitter Vk Yandex Mail.ru

AFI - Endlessy She Said - бас-таба, видео

Печатать
Просмотров: 155
Уроки эстрадного вокала в Санкт-Петербурге
----------------------------------------------------------------------------
			     Endlessly She Said- AFI
----------------------------------------------------------------------------

Tabbed By :Beato413 
e-mail:felix-413@hotmail.com 

Tuning:Half Step Flat

Intro:
G|---------------------------------------------------------------------------|
D|----7---------------7--9----9----------------------------------------------| X2
A|---9------9-10-----7-----9-9--9-9------------------------------------------|
E|7------7--------5----------------------------------------------------------|

Verse:
G|---------------------------------------------------------------------------|
D|----7------------------7--9----9-------------------------------------------| X2
A|---9------9-10-9-7----7-----9-9--9-9---------------------------------------|
E|7------7-----------5-------------------------------------------------------|

Pre-Chorus:
G|---------------------------------------------------------------------------|
D|-----------------79----9---------------------------------------------------|
A|--------------------9-9--9-9-----------------------------------------------|
E|3/7---3/7---3/7------------------------------------------------------------|

G|---------------------------------------------------------------------------|
D|------7-----------------7-9----9-----9-------------------------------------|
A|---999-----99910----999-----9-9--9-9---9-----------------------------------|
E|3/7-----3/7------3/7---------------------5-3-------------------------------|

Chorus:
G|---------------------------------------------------------------------------|
D|---------5-5-55555-5555----------------7-7---------------------------------| 
A|2-2222-5--5-------------3-33333-3333-7--7----------------------------------|
E|-------------------------------------------5-3-----------------------------|

G|------------------------------------------------------------4--------------|
D|---------5-5-55555-5555----------------7-7-----------------4---------------| 
A|2-2222-5--5-------------3-33333-3333-7--7--------2-----2-5-----------------|
E|--------------------------------------------5-3----------------------------|

Verse:
G|---------------------------------------------------------------------------|
D|----7------------------7-------9--9---9-9-----7---9----9-------------------|
A|---9---9---9-10-9-7---7-------7--9---9-9-----7------9-9--9-9---------------|
E|7-------7-----------5------7---------------5-------------------------------|

Pre-Chorus:
G|---------------------------------------------------------------------------|
D|-----------------79----9---------------------------------------------------|
A|--------------------9-9--9-9-----------------------------------------------|
E|3/7---3/7---3/7------------------------------------------------------------|

G|---------------------------------------------------------------------------|
D|------7-----------------7-9----9-----9-------------------------------------|
A|---999-----99910----999-----9-9--9-9---9-----------------------------------|
E|3/7-----3/7------3/7---------------------5-3-------------------------------|

Chorus:
G|---------------------------------------------------------------------------|
D|---------5-5-55555-5555----------------7-7---------------------------------| 
A|2-2222-5--5-------------3-33333-3333-7--7----------------------------------|
E|-------------------------------------------5-3-----------------------------|

G|------------------------------------------------------------4--------------|
D|---------5-5-55555-5555----------------7-7-----------------4---------------| 
A|2-2222-5--5-------------3-33333-3333-7--7--------2-----2-5-----------------|
E|--------------------------------------------5-3----------------------------|

Bridge:
G|---------------------------------------------------------------------------|
D|---------------------------------------------------------------------------|
A|2222222222--------0000000000--------2222222222---5-5-7777------------------|
E|----------------------------------------------0---5------------------------|

G|---------------------------------------------------------------------------|
D|------------------------------------------------------2--5-5--7------------|
A|5-7777-------------5-7777-----------5-7777----------------5----------------|
E|-------5555555h7-5---------5555557----------55555557-3---------------------|

G|---------------------------------------------------------------------------|
D|---------------------------------------------------------------------------|
A|5-55-5-5-5-7-77-7-7-7-9-99-9-9-9-11-10-9-----------------------------------|
E|---------------------------------------------------------------------------|

Chorus:
G|---------------------------------------------------------------------------|
D|---------5-5-55555-5555----------------7-7---------------------------------| 
A|2-2222-5--5-------------3-33333-3333-7--7----------------------------------|
E|-------------------------------------------5-3-----------------------------|

G|------------------------------------------------------------4--------------|
D|---------5-5-55555-5555----------------7-7-----------------4---------------| 
A|2-2222-5--5-------------3-33333-3333-7--7--------2-----2-5-----------------|
E|--------------------------------------------5-3----------------------------|

G|-------5-5-5-55555-6-66666-7-77777-----------------------------------------|
D|----------5------------------------3-33333-5-55555-7-77777-9-11-9-2-2-2-2--|
A|2-2222---------------------------------------------------------------------|
E|---------------------------------------------------------------------------|

G|---------------------------------------------------------------------------|
D|9----9-----7----7-----5----5-----4--7-7------------------------------------| X2
A|--9-9--9-9---7-7--7-7---5-5--5-5-----7-------------------------------------|
E|---------------------------------------------------------------------------|

G|---------------------------------------------------------------------------|
D|---9-----7------5------7----9------7-----5-7-5---4-------------------------|
A|--------7------5------7-----------7----------------------------------------|
E|7----5------3------5------7----5------3--------5---------------------------|

The Chorus section right before the screaming part is probably wrong but it's the best i could do.

| /  slide up
| \  slide down
| h  hammer-on
| p  pull-off
| ~  vibrato
| +  harmonic
| x  Mute note
===============================================================================
Добавлено: 21.02.2012
Другие материалы по этой песне:
  • Аккорды и текст

Страница создана 21.02.2012
http://primanota.ru/afi/endlessy-she-said-chords.htm
Привет, Гость.
Предлагаем пройти революционный курс по гитаре.
Подарок от PrimaNota.Ru, забирай!