PrimaNota.ru - самый крупный в мире бесплатный архив песенных текстов, аккордов, табулатур и нот


Aerosmith - Shela - текст песни, таба, видео

Регистрация Запомнить меня
Войти через:  Facebook Google Twitter Vk Yandex Mail.ru

Aerosmith - Shela - текст песни, таба, видео

Печатать
Просмотров: 273
Уроки эстрадного вокала в Санкт-Петербурге
-------------------------------------------------------------------------------
                             SHELA - Aerosmith
-------------------------------------------------------------------------------
Tabbed by: sezar
E-mail: Keanu-rimedorf@Hotmail.com

Tuning: standart

e|-----------------------------------------------|
B|-----------------------------------------------|
G|-----------------------------------------------|
D|----------5-----5-------5------4-----4-------4-|
A|-12\--0-3---0-3---0-3-3----0-3---0-3---0-3-3---|
E|-----------------------------------------------|

with slide:
e|----------------------|
B|-8/10-10\8--13-13\11--|
G|----------------------|
D|----------------------|
A|----------------------|
E|----------------------|

e|----------------------------------------|
B|--------------10p8---8------------------|
G|-------5-7-2-------9---9p7-7p5---5------|
D|-10-12-5-7-2-------------------7---7p5-7|
A|-10-12-3-5-0----------------------------|
E|-8--10----------------------------------|

************************************

| /   slide up
| \   slide down
| h   hammer-on
| p   pull-off
| ~   vibrato
| +   harmonic
| x   Mute note
| b   Bend
| pb  Pre-bend
| br  Bend release
| pbr Pre-bend release
| brb Bend release bend

************************************
Добавлено: 30.05.2014
Другие материалы по этой песне:
  • Аккорды и текст

Страница создана 25.03.2012
http://primanota.ru/aerosmith/shela-chords.htm
Привет, Гость.
Предлагаем пройти революционный курс по гитаре.
Подарок от PrimaNota.Ru, забирай!