PrimaNota.ru - самый крупный в мире бесплатный архив песенных текстов, аккордов, табулатур и нот


Aerosmith - Under my Skin - аккорды и текст, таба, видео

Регистрация Запомнить меня
Войти через:  Facebook Google Twitter Vk Yandex Mail.ru

Aerosmith - Under my Skin - аккорды и текст, таба, видео

Печатать
Просмотров: 207
Уроки эстрадного вокала в Санкт-Петербурге
Under my Skin
Aerosmith
Aerosmith
Just_Push_Play
Under_My_Skin
tab:Igor_Pekker


b=3Dbend
/=3Dslide up
\=3Dslide down


Drum intro_

Main riff:

E|---------|---------------------------|
B|---------|---------------------------|
G|---------|-----------------7----7-7--|
D|---------|-----------------7----7-7--|
A|---------|--3-4-5-3-0------5----5-5--|
D|--7-5h7--|------------3-0---(0)------|
    . . .              -b-

Verse riff:
   "you breathe..."
E|------------------------------------------------
B|------------------------------------------------
G|--5-7----5-7----10--/(7)-5-7----5-7----10--/----
D|--5-7----5-7----10--/(7)-5-7----5-7----10--/----
A|--5-5----5-5----8---/(5)-5-5----5-5----8---/----
D|---------------------------------------10--/----
                 -b-

  -----------------------------|
  -----------------------------|
  --5-7----5-7---10-\11/10--/--|
  --5-7----5-7---10-\11/10--/--|
  --5-5----5-5----8-\9-/8---/--|
  -----------------------------|


Pre-Chorus riff:
(not sure about the bends, sounds like there are 2 strings played)
  =20
   "give a little..."
E|-------------------------------------------------|
B|-------------------------------------------------|
G|--------\9----------\10--------\11----------\12--|
D|--7-7-7-----7-7-7-7------7-7-7------7-7-7-7------|
A|--7-7-7-----7-7-7-7------7-7-7------7-7-7-7------|
D|--7-7-7-----7-7-7-7------7-7-7------7-7-7-7------|
          -b-         -b-        -b-          -b-

Chorus:
         D           G          C        A
theres a girl living under my skin       
            D             G             C        A
theres this girl, & shes wearing me thin
      D            C                Bb          G
& i think shes the reason, that its open broken h....

Break:
A5            D                       A5          D
  you could spend your whole lifetime,   you could be ...


(main riff played over solo, & repeat riffs)

ends on:

E|------------------|
B|------------------|
G|------------------|
D|---------------0--|
A|--3-4-5-3-0----0--|
D|------------3--0--|=20
             -b-

enjoy!

     
Добавлено: 02.06.2013
Другие материалы по этой песне:

Страница создана 23.05.2012
http://primanota.ru/aerosmith/under-my-skin-chords.htm
Привет, Гость.
Предлагаем пройти революционный курс по гитаре.
Подарок от PrimaNota.Ru, забирай!