PrimaNota.ru - самый крупный в мире бесплатный архив песенных текстов, аккордов, табулатур и нот


Accept - Primitive - текст песни, бас-таба, видео

Регистрация Запомнить меня
Войти через:  Facebook Google Twitter Vk Yandex Mail.ru

Accept - Primitive - текст песни, бас-таба, видео

Печатать
Просмотров: 227
Transcribed by an unregistered user

Bass

     W                W                 
G||------------------------------------|
D||------------------------------------|
A||------------------------------------|
E||------------------------------------|


  E  E  E  E  Q    E  Q    E  Q    E  E  Q     
----------------------------------------------|
----------------------------------------------|
----------------------------------------------|
--0--0--1--0--3----0--2----0--3----0--0--1----|


  E  E  E  E  Q    E  Q    E  Q    Q    Q     
---------------------------------------------|
---------------------------------------------|
---------------------------------------------|
--0--0--1--0--3----0--2----0--3--------------|


  E  E  E  E  Q    E  Q    E  Q    E  E  Q     
----------------------------------------------|
----------------------------------------------|
----------------------------------------------|
--0--0--1--0--3----0--2----0--3----0--0--1----|


  E  E  E  E  Q    E  Q    E  Q    Q    Q     
---------------------------------------------|
---------------------------------------------|
---------------------------------------------|
--0--0--1--0--3----0--2----0--3--------------|


  E  E  E  E  Q    E  Q    E  Q    E  E  Q     
----------------------------------------------|
----------------------------------------------|
----------------------------------------------|
--0--0--1--0--3----0--2----0--3----0--0--1----|


  E  E  E  E  Q    E  Q    E  Q    Q    Q     
---------------------------------------------|
---------------------------------------------|
---------------------------------------------|
--0--0--1--0--3----0--2----0--3--------------|


  E  E  E  E  Q    E  Q    E  Q    E  E  Q     
----------------------------------------------|
----------------------------------------------|
----------------------------------------------|
--0--0--1--0--3----0--2----0--3----0--0--1----|


  E  E  E  E  Q    E  Q    E  Q    Q    Q     
---------------------------------------------|
---------------------------------------------|
---------------------------------------------|
--0--0--1--0--3----0--2----0--3--------------|


  E  E  E  E  Q    E  Q    E  Q    E  E  Q     
----------------------------------------------|
----------------------------------------------|
----------------------------------------------|
--0--0--1--0--3----0--2----0--3----0--0--1----|


  E  E  E  E  Q    E  Q    E  Q    Q    Q     
---------------------------------------------|
---------------------------------------------|
---------------------------------------------|
--0--0--1--0--3----0--2----0--3--------------|


  E  E  E  E  Q    E  Q    E  Q    E  E  Q     
----------------------------------------------|
----------------------------------------------|
----------------------------------------------|
--0--0--1--0--3----0--2----0--3----0--0--1----|


  E  E  E  E  Q    E  Q    E  Q    Q    Q     
---------------------------------------------|
---------------------------------------------|
---------------------------------------------|
--0--0--1--0--3----0--2----0--3--------------|


  E  E  E  E  Q    E  Q    E  Q    E  E  Q     
----------------------------------------------|
----------------------------------------------|
----------------------------------------------|
--0--0--1--0--3----0--2----0--3----0--0--1----|


  E  E  E  E  Q    E  Q    E  Q    Q    Q     
---------------------------------------------|
---------------------------------------------|
---------------------------------------------|
--0--0--1--0--3----0--2----0--3--------------|


  E  E  E  E  Q    E  Q    E  Q    E  E  Q     
----------------------------------------------|
----------------------------------------------|
----------------------------------------------|
--0--0--1--0--3----0--2----0--3----0--0--1----|


  E  E  E  E  Q    E  Q    E  Q    Q    Q     
---------------------------------------------|
---------------------------------------------|
---------------------------------------------|
--0--0--1--0--3----0--2----0--3--------------|


  E  E  E  E  Q    E  Q    E  Q    E  E  Q     
----------------------------------------------|
----------------------------------------------|
----------------------------------------------|
--0--0--1--0--3----0--2----0--3----0--0--1----|


  E  E  E  E  Q    E  Q    E  Q    Q    Q     
---------------------------------------------|
---------------------------------------------|
---------------------------------------------|
--0--0--1--0--3----0--2----0--3--------------|


  E  E  E  E  Q    E  Q    E  Q    E  E  Q     
----------------------------------------------|
----------------------------------------------|
----------------------------------------------|
--0--0--1--0--3----0--2----0--3----0--0--1----|


  E  E  E  E  Q    E  Q    E  Q    Q    Q     
---------------------------------------------|
---------------------------------------------|
---------------------------------------------|
--0--0--1--0--3----0--2----0--3--------------|


  E  E  E  E  Q    E  Q    E  Q    E  E  Q     
----------------------------------------------|
----------------------------------------------|
----------------------------------------------|
--0--0--1--0--3----0--2----0--3----0--0--1----|


  E  E  E  E  Q    E  Q    E  Q    Q    Q     
---------------------------------------------|
---------------------------------------------|
---------------------------------------------|
--0--0--1--0--3----0--2----0--3--------------|


  E  E  E  E  Q    E  Q    E  Q    E  E  Q     
----------------------------------------------|
----------------------------------------------|
----------------------------------------------|
--0--0--1--0--3----0--2----0--3----0--0--1----|


  E  E  E  E  Q    E  Q    E  Q    Q    Q     
---------------------------------------------|
---------------------------------------------|
---------------------------------------------|
--0--0--1--0--3----0--2----0--3--------------|


  E  E  E  E  Q    E  Q    E  Q    E  E  Q     
----------------------------------------------|
----------------------------------------------|
----------------------------------------------|
--0--0--1--0--3----0--2----0--3----0--0--1----|


  E  E  E  E  Q    E  Q    E  Q    Q    Q     
---------------------------------------------|
---------------------------------------------|
---------------------------------------------|
--0--0--1--0--3----0--2----0--3--------------|


  E  E  E  E  Q    E  Q    E  Q    E  E  Q     
----------------------------------------------|
----------------------------------------------|
----------------------------------------------|
--0--0--1--0--3----0--2----0--3----0--0--1----|


  E  E  E  E  Q    E  Q    E  Q    Q    Q     
---------------------------------------------|
---------------------------------------------|
---------------------------------------------|
--0--0--1--0--3----0--2----0--3--------------|


  E  E  E  E  Q    E  Q    E  Q    E  E  Q     
----------------------------------------------|
----------------------------------------------|
----------------------------------------------|
--0--0--1--0--3----0--2----0--3----0--0--1----|


  E  E  E  E  Q    E  Q    E  Q    Q    Q     
---------------------------------------------|
---------------------------------------------|
---------------------------------------------|
--0--0--1--0--3----0--2----0--3--------------|


  E  E  E  E  Q    E  Q    E  Q    E  E  Q     
----------------------------------------------|
----------------------------------------------|
----------------------------------------------|
--0--0--1--0--3----0--2----0--3----0--0--1----|


  E  E  E  E  Q    E  Q    E  Q    Q    Q     
---------------------------------------------|
---------------------------------------------|
---------------------------------------------|
--0--0--1--0--3----0--2----0--3--------------|


  E  E  E  E  Q    E  Q    E  Q    E  E  Q     
----------------------------------------------|
----------------------------------------------|
----------------------------------------------|
--0--0--1--0--3----0--2----0--3----0--0--1----|


  E  E  E  E  Q    E  Q    E  Q    Q    Q     
---------------------------------------------|
---------------------------------------------|
---------------------------------------------|
--0--0--1--0--3----0--2----0--3--------------|


  E  E  E  E  E  E  E  E  E  E  E  E  E  E  E  E   
--------------------------------------------------|
--------------------------------------------------|
--------------------------------------------------|
--0--0--1--0-----0--------0--0--1--0--------------|


  E  E  E  E  E  E  E  E  E  E  E  E  E  E  E  E   
--------------------------------------------------|
--------------------------------------------------|
--------------------------------------------------|
--0--0--1--0-----0--------0--0--1--0--------------|


  E  E  E  E  E  E  E  E  E  E  E  E  E  E  E  E   
--------------------------------------------------|
--------------------------------------------------|
--------------------------------------------------|
--0--0--1--0-----0--------0--0--1--0--------------|


  E  E  E  E  E  E  E  E  E  E  E  E  E  E  E  E   
--------------------------------------------------|
--------------------------------------------------|
--------------------------------------------------|
--0--0--1--0-----0--------0--0--1--0--------------|


  E  E  E  E  E  E  E  E  E  E  E  E  E  E  E  E   
--------------------------------------------------|
--------------------------------------------------|
--------------------------------------------------|
--0--0--1--0-----0--------0--0--1--0--------------|


  E  E  E  E  E  E  E  E  E  E  E  E  E  E  E  E   
--------------------------------------------------|
--------------------------------------------------|
--------------------------------------------------|
--0--0--1--0-----0--------0--0--1--0--------------|


  E  E  E  E  E  E  E  E  E  E  E  E  E  E  E  E   
--------------------------------------------------|
--------------------------------------------------|
--------------------------------------------------|
--0--0--1--0-----0--------0--0--1--0--------------|


  E  E  E  E  E  E  E  E  E  E  E  E  E  E  E  E   
--------------------------------------------------|
--------------------------------------------------|
--------------------------------------------------|
--0--0--1--0-----0--------0--0--1--0--------------|


  E  E  E  E  Q    E  Q    E  Q    E  E  Q     
----------------------------------------------|
----------------------------------------------|
----------------------------------------------|
--0--0--1--0--3----0--2----0--3----0--0--1----|


  E  E  E  E  Q    E  Q    E  Q    Q    Q     
---------------------------------------------|
---------------------------------------------|
---------------------------------------------|
--0--0--1--0--3----0--2----0--3--------------|


  E  E  E  E  Q    E  Q    E  Q    E  E  Q     
----------------------------------------------|
----------------------------------------------|
----------------------------------------------|
--0--0--1--0--3----0--2----0--3----0--0--1----|


  E  E  E  E  Q    E  Q    E  Q    Q    Q     
---------------------------------------------|
---------------------------------------------|
---------------------------------------------|
--0--0--1--0--3----0--2----0--3--------------|


  E  E  E  E  Q    E  Q    E  Q    E  E  Q     
----------------------------------------------|
----------------------------------------------|
----------------------------------------------|
--0--0--1--0--3----0--2----0--3----0--0--1----|


  E  E  E  E  Q    E  Q    E  Q    Q    Q     
---------------------------------------------|
---------------------------------------------|
---------------------------------------------|
--0--0--1--0--3----0--2----0--3--------------|


  E  E  E  E  Q    E  Q    E  Q    E  E  Q     
----------------------------------------------|
----------------------------------------------|
----------------------------------------------|
--0--0--1--0--3----0--2----0--3----0--0--1----|


  E  E  E  E  Q    E  Q    E  Q    Q    Q     
---------------------------------------------|
---------------------------------------------|
---------------------------------------------|
--0--0--1--0--3----0--2----0--3--------------|


  E  E  E  E  Q    E  Q    E  Q    E  E  Q     
----------------------------------------------|
----------------------------------------------|
----------------------------------------------|
--0--0--1--0--3----0--2----0--3----0--0--1----|


  E  E  E  E  Q    E  Q    E  Q    Q    Q     
---------------------------------------------|
---------------------------------------------|
---------------------------------------------|
--0--0--1--0--3----0--2----0--3--------------|


  E  E  E  E  Q    E  Q    E  Q    E  E  Q     
----------------------------------------------|
----------------------------------------------|
----------------------------------------------|
--0--0--1--0--3----0--2----0--3----0--0--1----|


  E  E  E  E  Q    E  Q    E  Q    Q    Q     
---------------------------------------------|
---------------------------------------------|
---------------------------------------------|
--0--0--1--0--3----0--2----0--3--------------|


  E  E  E  E  Q    E  Q    E  Q    E  E  Q     
----------------------------------------------|
----------------------------------------------|
----------------------------------------------|
--0--0--1--0--3----0--2----0--3----0--0--1----|


  E  E  E  E  Q    E  Q    E  Q    Q    Q     
---------------------------------------------|
---------------------------------------------|
---------------------------------------------|
--0--0--1--0--3----0--2----0--3--------------|


  E  E  E  E  Q    E  Q    E  Q    E  E  Q     
----------------------------------------------|
----------------------------------------------|
----------------------------------------------|
--0--0--1--0--3----0--2----0--3----0--0--1----|


  E  E  E  E  Q    E  Q    E  Q    Q    Q     
---------------------------------------------|
---------------------------------------------|
---------------------------------------------|
--0--0--1--0--3----0--2----0--3--------------|


  E  E  E  E  Q    E  Q    E  Q    E  E  Q     
----------------------------------------------|
----------------------------------------------|
----------------------------------------------|
--0--0--1--0--3----0--2----0--3----0--0--1----|


  E  E  E  E  Q    E  Q    E  Q    Q    Q     
---------------------------------------------|
---------------------------------------------|
---------------------------------------------|
--0--0--1--0--3----0--2----0--3--------------|


  E  E  E  E  Q    E  Q    E  Q    E  E  Q     
----------------------------------------------|
----------------------------------------------|
----------------------------------------------|
--0--0--1--0--3----0--2----0--3----0--0--1----|


  E  E  E  E  Q    E  Q    E  Q    Q    Q     
---------------------------------------------|
---------------------------------------------|
---------------------------------------------|
--0--0--1--0--3----0--2----0--3--------------|


  E  E  E  E  Q    E  Q    E  Q    E  E  Q     
----------------------------------------------|
----------------------------------------------|
----------------------------------------------|
--0--0--1--0--3----0--2----0--3----0--0--1----|


  E  E  E  E  Q    E  Q    E  Q    Q    Q     
---------------------------------------------|
---------------------------------------------|
---------------------------------------------|
--0--0--1--0--3----0--2----0--3--------------|


  E  E  E  E  Q    E  Q    E  Q    E  E  Q     
----------------------------------------------|
----------------------------------------------|
----------------------------------------------|
--0--0--1--0--3----0--2----0--3----0--0--1----|


  E  E  E  E  Q    E  Q    E  Q    Q    Q     
---------------------------------------------|
---------------------------------------------|
---------------------------------------------|
--0--0--1--0--3----0--2----0--3--------------|


  E  E  E  E  Q    E  Q    E  Q    E  E  Q     
----------------------------------------------|
----------------------------------------------|
----------------------------------------------|
--0--0--1--0--3----0--2----0--3----0--0--1----|


  E  E  E  E  Q    E  Q    E  Q    Q    Q     
---------------------------------------------|
---------------------------------------------|
---------------------------------------------|
--0--0--1--0--3----0--2----0--3--------------|


  E  E  E  E  Q    E  Q    E  Q    E  E  Q     
----------------------------------------------|
----------------------------------------------|
----------------------------------------------|
--0--0--1--0--3----0--2----0--3----0--0--1----|


  E  E  E  E  Q    E  Q    E  Q    Q    Q     
---------------------------------------------|
---------------------------------------------|
---------------------------------------------|
--0--0--1--0--3----0--2----0--3--------------|


  E  E  E  E  Q    E  Q    E  Q    E  E  Q     
----------------------------------------------|
----------------------------------------------|
----------------------------------------------|
--0--0--1--0--3----0--2----0--3----0--0--1----|


  E  E  E  E  Q    E  Q    E  Q    Q    Q     
---------------------------------------------|
---------------------------------------------|
---------------------------------------------|
--0--0--1--0--3----0--2----0--3--------------|


  E  E  E  E  Q    E  Q    E  Q    E  E  Q     
----------------------------------------------|
----------------------------------------------|
----------------------------------------------|
--0--0--1--0--3----0--2----0--3----0--0--1----|


  E  E  E  E  Q    E  Q    E  Q    Q    Q      
---------------------------------------------||
---------------------------------------------||
---------------------------------------------||
--0--0--1--0--3----0--2----0--3--------------||




Duration Legend
---------------
W - whole
H - half
Q - quarter
E - 8th
S - 16th
T - 32nd
X - 64th
. - note dotted
|-n-|  - n-tuplets


Tablature Legend
----------------
L - tied note
x - dead note
g - grace note
(n) - ghost note
> - accentuded note
NH - natural harmonic
AH - artificial harmonic
TH - tapped harmonic
SH - semi harmonic
PH - pitch harmonic
h - hammer on
p - pull off
b - bend
br - bendRelease
pb - preBend
pbr - preBendRelease
brb - bendReleaseBend
\n/ - tremolo bar dip
\n - tremolo bar dive
-/n - tremolo bar Release up
/n\ - tremolo bar inverted dip
/n - tremolo bar return
-\n - tremolo bar Release down
S - shift slide
s - legato slide
/ -  slide into from below or out of upwards
\ -  slide into from above or out of downwards
~ - vibrato
W - wide vibrato
tr - trill
TP - tremolo picking
T - tapping
S - slap
P - pop
< - fade in
^ - brush up
v - brush down
Добавлено: 27.06.2012
Другие материалы по этой песне:

Страница создана 13.03.2012
http://primanota.ru/accept/primitive-chords.htm
Привет, Гость.
Предлагаем пройти революционный курс по гитаре.
Подарок от PrimaNota.Ru, забирай!