PrimaNota.ru - самый крупный в мире бесплатный архив песенных текстов, аккордов, табулатур и нот


Absurd - Als Die Alten Jung Noch Waren - текст песни, таба, видео

Регистрация Запомнить меня
Войти через:  Facebook Google Twitter Vk Yandex Mail.ru

Absurd - Als Die Alten Jung Noch Waren - текст песни, таба, видео

Печатать
Просмотров: 230
ABSURD "Als die Alten jung noch waren"
Walknut records / ASGARDSREI album 1998
BEAT = 3/4
TEMPO = slow, very moderate. I tried to squish the notes together to save space,
but the chords are played slow downstrum with a groove.


Intro D5

Verse/outro Verse riff part 1 Verse riff part 2 (kind of gallop rhythm)
e|----------------------------------|-----------------------------|
B|----------------------------------|-----------------------------|
G|----------------------------------|-----------------------------|
D|-777-777-777-777------------------|-7-77-77-77-7----------------|
A|-555-555-555-555-888-888-333-333--|-5-55-55-55-5--5-55-55-55-5--|
E|-----------------666-666-111-111--|---------------3-33-33-33-3--|

Lead (under verse riff part 2)
e|-------------------------|-------------------------------------------------------|
B|------6-8-6-5(5)---------|-------------------------------------------------------|
G|-7--7------------7 (7~)--|-------------------------------------------------------|
D|-------------------------|-7-7-7--7-7-7--7-7-7--7-7-7----------------------------|
A|-------------------------|-5-5-5--5-5-5--5-5-5--5-5-5--7-7-7--7-7-7--8-8-8--8-8-8|
E|-------------------------|-----------------------------5-5-5--5-5-5--6-6-6--6-6-6|

Structure: Intro
V.Part 1 2x
V Part 2 2x, 2x w/ lead
Bridge 2x
V.Part 1 4x
V.Part 2 2x, 2x w/lead
V.Part 1 6x as outro (no vocals)
D5 once
Добавлено: 21.04.2012
Другие материалы по этой песне:
  • Аккорды и текст

Страница создана 21.04.2012
http://primanota.ru/absurd/als-die-alten-jung-noch-waren-chords.htm
Привет, Гость.
Предлагаем пройти революционный курс по гитаре.
Подарок от PrimaNota.Ru, забирай!