PrimaNota.ru - самый крупный в мире бесплатный архив песенных текстов, аккордов, табулатур и нот


Abandon All Ships - Family Goretrait - таба, видео

Регистрация Запомнить меня
Войти через:  Facebook Google Twitter Vk Yandex Mail.ru

Abandon All Ships - Family Goretrait - таба, видео

Печатать
Просмотров: 45
-------------------------------------------------------------------------------
                  Family Goretrait - Abandon All Ships
-------------------------------------------------------------------------------
Tabbed by: Obsimyx                                               Tuning: Drop D

0:34-Verse

e|----------------------------------------------------------------|
B|----------------------------------------------------------------|
G|----------------------------------------------------------------|
D|----------------------------------------------------------------|
A|-0-0-000-000-0-0-000-0--0-0-000-0-0-000-000-000-000-000-000-000-|
D|-0-0-000-000-0-0-000-0--0-0-000-0-0-000-000-000-000-000-000-000-|
   * * *** *** * * *** *  * * *** * * *** *** *** *** *** *** ***

e|---------------------------------------------------------------------------------|
B|---------------------------------------------------------------------------------|
G|-10-10-10-10-10-10-10-10-10-10-10-10-10-10-10-10-9-9-9-9-9-9-9-9---8-8-8---9-9-9-|
D|---------------------------------------------------------------------------------|
A|-8--8--8--8--8--8--8--8--8--8--8--8--8--8--8--8--7-7-7-7-7-7-7-7-0-6-6-6-0-7-7-7-|
D|-----------------------------------------------------------------0-------0-------|
                                                                   *       *

0:46

e|----------------------------------------------------------------|
B|----------------------------------------------------------------|
G|----------------------------------------------------------------|
D|----------------------------------------------------------------|
A|-0-0-000-000-0-0-000-0--0-0-000-0-0-000-000-000-000-000-000-000-|
D|-0-0-000-000-0-0-000-0--0-0-000-0-0-000-000-000-000-000-000-000-|
   * * *** *** * * *** *  * * *** * * *** *** *** *** *** *** ***

e|---------------------------------------------------------------------------------|
B|---------------------------------------------------------------------------------|
G|-10-10-10-10-10-10-10-10-10-10-10-10-10-10-10-10-9-9-9-9-9-9-9-9---8-8-8---9-9-9-|
D|---------------------------------------------------------------------------------|
A|-8--8--8--8--8--8--8--8--8--8--8--8--8--8--8--8--7-7-7-7-7-7-7-7-0-6-6-6-0-7-7-7-|
D|-----------------------------------------------------------------0-------0-------|
                                                                   *       *

1:02-Breakdown

e|-----------------------------------------------------------------------------------|
B|-----------------------------------------------------------------------------------|
G|-------------------------------------------------------------------------101010107-|
D|-----------------------------------------------------------------------------------|
A|-00--00--00--00--00-00--00----00--00--00---00--00--00--00--00-00-00----0-8-8-8-8-5-|
D|-11--11--11--11--11-11--11----11--11--11---11--11--11--11--11-11-11----0-----------|
HVY**  **  **  **  ** **  **    **  **  **   **  **  **  **  ** ** **    *
PM-------------------------------------------------------------------|

e|-----------------------------------------------------------------------------------|
B|-----------------------------------------------------------------------------------|
G|-------------------------------------------------------------------------101010107-|
D|-----------------------------------------------------------------------------------|
A|-00--00--00--00--000000-------00--00--00---00--00--00--00--000000------0-8-8-8-8-5-|
D|-11--11--11--11--111111-------11--11--11---11--11--11--11--111111------0-----------|
HVY**  **  **  **  ******       **  **  **   **  **  **  **  ******      *
PM-------------------------------------------------------------------|

1:15 Rody Walker Interlude

e|------------------------------------------------------------------------------------------|
B|------------------------------------------------------------------------------------------|
G|------------------------------------------------------------------------------------------|
D|------------------------------------------------------------------------------------------|
A|-0-8585-0-8585-0-85-0-8585-0-858585---8-118118-8-118118-8-118-10-13101310-10-/15-17-17-15-|
D|-0------0------0----0------0-------8--8--------8--------8-----10----------10--------------|
   *      *      *    *      *          *        *        *     *           *

e|------------------------------------------------------------------------------------------|
B|------------------------------------------------------------------------------------------|
G|------------------------------------------------------------------------------------------|
D|------------------------------------------------------------------------------------------|
A|-0-8585-0-8585-0-85-0-8585-0-858585---8-118118-8-118118-8-118-10-13101310-10-/15-17-17-15-|
D|-0------0------0----0------0-------8--8--------8--------8-----10----------10--------------|
   *      *      *    *      *          *        *        *     *           *

1:27-Pre-Chorus

e|-----------------------------------------------------------------|
B|-----------------------------------------------------------------|
G|-----------------------------------------------------------------|
D|-0-----------10-----------------------7-----------8--------------|
A|-0-----------10-----------------------7-----------8--------------|
D|-0-----------10-----------------------7-----------8--------------|

Chorus

e|-----------------------------------------------------------------|
B|-----------------------------------------------------------------|
G|-----------------------------------------------------------------|
D|-0--0--0-0-0-10--10-10-10-10-10-10-10-7--7--7-7-7-8--8-8-8-8-8-8-|
A|-0--0--0-0-0-10--10-10-10-10-10-10-10-7--7--7-7-7-8--8-8-8-8-8-8-|
D|-0--0--0-0-0-10--10-10-10-10-10-10-10-7--7--7-7-7-8--8-8-8-8-8-8-|

e|-------------------------------------------------------------------|
B|-------------------------------------------------------------------|
G|-------------------------------------------------------------------|
D|-0--0--0-0-0-10--10-10-10-10-10-10-10-7--7--7-7-7-8--8-8-8-8-8-8-8-|
A|-0--0--0-0-0-10--10-10-10-10-10-10-10-7--7--7-7-7-8--8-8-8-8-8-8-8-|
D|-0--0--0-0-0-10--10-10-10-10-10-10-10-7--7--7-7-7-8--8-8-8-8-8-8-8-|

e|--------------------------------------------------------------------|
B|--------------------------------------------------------------------|
G|------------------------------------------------------2-2-2---3-3-3-|
D|-0--0--0-0-0-10--10-10-10-10-10-10-10-7--7--7-7-7-8-----------------|
A|-0--0--0-0-0-10--10-10-10-10-10-10-10-7--7--7-7-7-8-0-0-0-0-0-1-1-1-|
D|-0--0--0-0-0-10--10-10-10-10-10-10-10-7--7--7-7-7-8-0-------0-------|
                                                      *       *

1:52-2nd Verse

e|----------------------------------------------------------------|
B|----------------------------------------------------------------|
G|----------------------------------------------------------------|
D|----------------------------------------------------------------|
A|-0-0-000-000-0-0-000-0--0-0-000-0-0-000-000-000-000-000-000-000-|
D|-0-0-000-000-0-0-000-0--0-0-000-0-0-000-000-000-000-000-000-000-|
   * * *** *** * * *** *  * * *** * * *** *** *** *** *** *** ***

e|---------------------------------------------------------------------------------|
B|---------------------------------------------------------------------------------|
G|-------------------------------------------------------------------2-2-2---3-3-3-|
D|-10-10-10-10-10-10-10-10-10-10-10-10-10-10-10-10-7-7-7-7-7-7-7-8-----------------|
A|-10-10-10-10-10-10-10-10-10-10-10-10-10-10-10-10-7-7-7-7-7-7-7-8-0-0-0-0-0-1-1-1-|
D|-10-10-10-10-10-10-10-10-10-10-10-10-10-10-10-10-7-7-7-7-7-7-7-8-0-------0-------|
                                                                   *       *

e|----------------------------------------------------------------|
B|----------------------------------------------------------------|
G|----------------------------------------------------------------|
D|----------------------------------------------------------------|
A|-0-0-000-000-0-0-000-0--0-0-000-0-0-000-000-000-000-000-000-000-|
D|-0-0-000-000-0-0-000-0--0-0-000-0-0-000-000-000-000-000-000-000-|
   * * *** *** * * *** *  * * *** * * *** *** *** *** *** *** ***

e|---------------------------------------------------------------------------------|
B|---------------------------------------------------------------------------------|
G|-------------------------------------------------------------------2-2-2---3-3-3-|
D|-10-10-10-10-10-10-10-10-10-10-10-10-10-10-10-10-7-7-7-7-7-7-7-8-----------------|
A|-10-10-10-10-10-10-10-10-10-10-10-10-10-10-10-10-7-7-7-7-7-7-7-8-0-0-0-0-0-1-1-1-|
D|-10-10-10-10-10-10-10-10-10-10-10-10-10-10-10-10-7-7-7-7-7-7-7-8-0-------0-------|
                                                                   *       *

2:16-Bridge

e|--------------------------------------------------|
B|--------------------------------------------------|
G|--------------------------------------------------|
D|--------------------------------------------------|
A|--------------------------------------------------|
D|-4-4-4-2-2-2-0-0-0-4-4-4-2-2-2b-0-1b-pb1-0-1b-pb1-|

2:21-2nd Rody Walker Interlude

e|----------------------------------------------------------------------------------------|
B|----------------------------------------------------------------------------------------|
G|----7-7----7-7----7----7-7----7-7-7-5----10-10----10-10----10------12------/15-17-17-15-|
D|----------------------------------------------------------------------------------------|
A|-00-5-5-00-5-5-00-5-00-5-5-00-5-5-5-3-88-8--8--88-8--8--88-8--1010-10-1010-/13-15-15-13-|
D|-00-----00-----00---00-----00---------88-------88-------88----1010----1010--------------|
   **     **     **   **     **         **       **       **    * *     * *

2:33-2nd Chorus

e|-----------------------------------------------------------------|
B|-----------------------------------------------------------------|
G|-----------------------------------------------------------------|
D|-------------10--10-10-10-10-10-10-10-7--7--7-7-7-8--8-8-8-8-8-8-|
A|-------------10--10-10-10-10-10-10-10-7--7--7-7-7-8--8-8-8-8-8-8-|
D|-------------10--10-10-10-10-10-10-10-7--7--7-7-7-8--8-8-8-8-8-8-|

e|-------------------------------------------------------------------|
B|-------------------------------------------------------------------|
G|-------------------------------------------------------------------|
D|-0--0--0-0-0-10--10-10-10-10-10-10-10-7--7--7-7-7-8--8-8-8-8-8-8-8-|
A|-0--0--0-0-0-10--10-10-10-10-10-10-10-7--7--7-7-7-8--8-8-8-8-8-8-8-|
D|-0--0--0-0-0-10--10-10-10-10-10-10-10-7--7--7-7-7-8--8-8-8-8-8-8-8-|

e|--------------------------------------------------------------------|
B|--------------------------------------------------------------------|
G|------------------------------------------------------2-2-2---3-3-3-|
D|-0--0--0-0-0-10--10-10-10-10-10-10-10-7--7--7-7-7-8-----------------|
A|-0--0--0-0-0-10--10-10-10-10-10-10-10-7--7--7-7-7-8-0-0-0-0-0-1-1-1-|
D|-0--0--0-0-0-10--10-10-10-10-10-10-10-7--7--7-7-7-8-0-------0-------|
                                                      *       *

2:51-Build

e|--------------------------------------------------------------|
B|-4-4-4-4-4-4-4-4-4-4-4-4-4-4-4-4-4-4-4-4-4-4-4-4-4-4-4-4-4----|
G|-7-7-7-7-7-7-7-7-7-7-7-7-7-7-7-7-7-7-7-7-7-7-7-7-7-7-7-7-7----|
D|--------------------------------------------------------------|
A|--------------------------------------------------------------|
D|--------------------------------------------------------------|
                           gradually bend|----------------------|

2:58-2nd Breakdown

e|-----------------------------------------------------------------|
B|-----------------------------------------------------------------|
G|-----------------------------------------------------------------|
D|-----------------------------------------------------------------|
A|-000-------00--000-------00--00--00--000-------00--000-------00--|
D|-000-0--0--00--000-0--0--00--00--00--000-0--0--00--000-0--0--00--|
   ***       **  ***       **  **  **  ***       **  ***       **

3:04-Outro Breakdown

e|----------------------------------------------------------------------------------------|
B|----------------------------------------------------------------------------------------|
G|----------------------------------------------------------------------------------------|
D|-1111-1-11-1111-1-11-11-11-1111-1-11-1111-1-11------------------------------------------|
A|-1111-1-11-1111-1-11-11-11-1111-1-11-1111-1-11-00-00-000-------00--000-------00--00--00-|
D|-2222-2-22-2222-2-22-22-22-2222-2-22-2222-2-22-11-11-000-0--0--00--000-0--0--00--00--00-|
   **** * ** **** * ** ** ** **** * ** **** * ** ** ** ***       **  ***       **  **  **
  
************************************

| /   slide up
| \   slide down
| h   hammer-on
| p   pull-off
| ~   vibrato
| +   harmonic
| x   Mute note
| b   Bend
| pb  Pre-bend
| br  Bend release
| pbr Pre-bend release
| brb Bend release bend

************************************
Добавлено: 08.05.2016
Вам также может быть интересно:
Другие материалы по этой песне:
  • Аккорды и текст

Страница создана 08.05.2016
http://primanota.ru/abandon-all-ships/family-goretrait-chords.htm
Привет, Гость.
Предлагаем пройти революционный курс по гитаре.
Подарок от PrimaNota.Ru, забирай!