PrimaNota.ru - самый крупный в мире бесплатный архив песенных текстов, аккордов, табулатур и нот


Abandon All Ships - Take One Last Breath - таба, бас-таба, драм-таба, видео

Регистрация Запомнить меня
Войти через:  Facebook Google Twitter Vk Yandex Mail.ru

Abandon All Ships - Take One Last Breath - таба, бас-таба, драм-таба, видео

Печатать
Просмотров: 432
------------------------------------------------------------------------------
                       Take One Last Breath
                         Abandon All Ships
------------------------------------------------------------------------------
Tabbed by: the_extreme
Tuning: Drop D


This song is particularly easy because the entire song is based off of one chord progression!

(0:00 - 0:55)
It's this same chord progression over and over
e|----------------|
B|----------------|
G|----3--------5--|
D|0---3---3----5--|
A|0---1---3----3--|
E|0-------3-------|

(at 0:55)
e|-------------|
B|-------------|
G|-------------|
D|-0~~~~~------| (with techno interlude, then repeat chords above)
A|-0~~~~~------|
E|-0~~~~~------|

(1:38)

e|--------------------------------|
B|--------------------------------|
G|---------3--333----------5--555-|
D|-0--000--3--333--3--333--5--555-|(1x then repeat chords in normal strumming)
A|-0--000--1--111--3--333--3--333-|
E|-0--000----------3--333---------|

(2:21, Breakdown)

e|----------------------------------5nh-----------------8-|
B|----------------------------------5nh--------------6----|
G|----------------------------------5nh------------9---9--|
D|-0~~~-010---0-00-00--0-00-00--010-5nh- (2x then)--------|
A|-0~~~-010---0-00-00--0-00-00--010-----------------------|
E|-0~~~-010---0-00-00--0-00-00--010-----------------------|
 **************************************
(2:37)
   "Look what we've built!" (not sure of the "3--5-4-| and the pinch harmonic)
e|---------------------------------------------------|
B|---------------------------------------------------|
G|---------------------------------------------------|
D|-010--00000-00-00--010---------000-----------------|
A|-010--00000-00-00--010---3-----000-----------------|
E|-010--00000-00-00--010-----5-4-000-4ah-------------|
  **********************         ***

e|--------------------------|
B|--------------------------|
G|--------------------------|
D|-01010101010101010--------|(repeat)
A|-01010101010101010--3-----|
E|-01010101010101010----5-4-|
   *****************

Last Chorus repeat chords above.

Any comments, corrections are welcome! :)
Добавлено: 18.07.2012
Другие материалы по этой песне:

Страница создана 18.03.2012
http://primanota.ru/abandon-all-ships/take-one-last-breath-chords.htm
Привет, Гость.
Предлагаем пройти революционный курс по гитаре.
Подарок от PrimaNota.Ru, забирай!