PrimaNota.ru - самый крупный в мире бесплатный архив песенных текстов, аккордов, табулатур и нот


311 - Visit - текст песни, таба, бас-таба, видео

Регистрация Запомнить меня
Войти через:  Facebook Google Twitter Vk Yandex Mail.ru

311 - Visit - текст песни, таба, бас-таба, видео

Печатать
Просмотров: 203
311 - Visit
Tabbed By: Chris
EMail: pnutbutter311@netscape.net


Intro: 

====== 

E5 A5 B5 C5 B5 A5 N.C. E5 A5 B5 C5 D5 B5 

1:---------------------------------------------------------- 

2:---------------------------------------------------------- 

3:-----2---4---5---4----------------------2---4---5---7----- 

4:-2---2---4---5---4------------------2---2---4---5---7---9- 

5:-2---0---2---3---2------------------2---0---2---3---5---9- 

6:-0------------------b3b--0-0-5-0-0--0-------------------7- 

  

C5 B5 A5 C5 B5 A5 

1:-------------------------- 

2:-------------------------- 

3:-------------------------- 

4:-10---9---7----10---9---7- 

5:-10---9---7----10---9---7- 

6:--8---7---5-----8---7---5- 

  

E5 A5 B5 C5 B5 A5 N.C. E5 A5 B5 C5 D5 B5 

1:---------------------------------------------------------- 

2:---------------------------------------------------------- 

3:-----2---4---5---4----------------------2---4---5---7----- 

4:-2---2---4---5---4------------------2---2---4---5---7---9- 

5:-2---0---2---3---2------------------2---0---2---3---5---9- 

6:-0------------------b3b--0-0-5-0-0--0-------------------7- 

  

C5 B5 A5 C5 B5 A5 

1:-------------------------- 

2:-------------------------- 

3:-------------------------- 

4:-10---9---7----10---9---7- 

5:-10---9---7----10---9---7- 

6:--8---7---5-----8---7---5- 

  

1:----------------------------------------------------- 

2:----------------------------------------------------- 

3:---------------------------------9-9-9-9---------9//- 

4:-9-9-9-9---------9-9-9-9---------9-9-9-9-7-7-7-7-9//- 

5:-7-7-7-7-7-7-7-7-7-7-7-7-7-7-7-7-7-7-7-7-7-7-7-7-7//- 

6:---------5-5-5-5---------5-5-5-5---------5-5-5-5----- 

  

Riff 1: 

======= 

N.C. 

1:------------------------ 

2:------------------------ 

3:------------------------ 

4:------------------------ 

5:-------0--1--0---------- 

6:-0--3-----------2h3p2h3- 

  

Riff 2: 

======= 

A6 

1:-14--14--14--14--14--14--14--14--14--14--14--14--14--14--14--14- 

2:-14--14--14--14--14--14--14--14--14--14--14--14--14--14--14--14- 

3:-14--14--14--14--14--14--14--14--14--14--14--14--14--14--14--14- 

4:---------------------------------------------------------------- 

5:---------------------------------------------------------------- 

6:---------------------------------------------------------------- 

  

Chorus: 

======= 

A5 C# B C# (D) 

1:------------------------------- 

2:---------------6---4---6---(7)- 

3:---------------6---4---6---(7)- 

4:-7-7-7-7-7-7---6---4---6---(7)- 

5:-7-7-7-7-7-7---4---2---4---(5)- 

6:-5-5-5-5-5-5------------------- 

  

At end of chorus play: B5 (x2444x) 

  

Fill (w/octaver): 

================= 

N.C. 

1:---------------- 

2:---------------- 

3:---------------- 

4:---------------- 

5:-2-0---0-------- 

6:-----3----3-2-3- 

  

Bridge: 

======= 

B5 F#5 G5 A5 N.C. 

1:------------------------- 

2:------------------------- 

3:-4----------------------- 

4:-4---4---5---7----------- 

5:-2---4---5---7----------- 

6:-----2---3---5---7-5-3-5- 

|----> 

Rest of the Bridge w/octaver 

N.C. 

1:----------------------------------------------------------------------- 

2:----------------------------------------------------------------------- 

3:----------------------------------------------------------------------- 

4:----------------------------------------------------------------------- 

5:----------------------------------------------------------------------- 

6:-0-3-2-3-5-3-2-3-6-5-3-5-3-2-3-2--0-3-2-3-5-3-2-3-6-5--3-3-3-3-3---0-3- 

  

N.C. 

1:----------------------------------------------------------------------- 

2:----------------------------------------------------------------------- 

3:----------------------------------------------------------------------- 

4:----------------------------------------------------------------------- 

5:----------------------------------------------------------------------- 

6:-2-3-5-3-2-3-6-5-3-5-3-2-3-2-0-3-2-3-5-3-2-3-6-6-6-6-6-6-6-6-3-3-3-3-3- 

  

Ending Solo: 

============ 

N.C. 

1:-------------------------------------------------------------------- 

2:-------------------16--17p15p14-17p15p14-17p15p14-17p15p14-19p17p16- 

3:-------------16-18-------------------------------------------------- 

4:----------18-------------------------------------------------------- 

5:----16-18----------------------------------------------------------- 

6:-17----------------------------------------------------------------- 

  

N.C. 

1:-------------------17p16p14-------------------------------------- 

1:-19p17p16-19p17p16-----------17p15p14-17p15p14-17p15p14-17p15p14- 

3:----------------------------------------------------------------- 

4:----------------------------------------------------------------- 

5:----------------------------------------------------------------- 

6:----------------------------------------------------------------- 

  

N.C. 

1:----------------------------17p16p14---------------------------------- 

2:-19p17p16-19p17p16-19p17p16---------------17-17--15-14-------14h15p14- 

3:---------------------------------------14--------------16-14---------- 

4:---------------------------------------------------------------------- 

5:---------------------------------------------------------------------- 

6:---------------------------------------------------------------------- 

  

N.C. 

1:--------------------14-17-14----14-17-17--b19b-19-17-19-17----17-17- 

2:----------17-17--17----------17----------------------------19------- 

3:-16-13h14----------------------------------------------------------- 

4:-------------------------------------------------------------------- 

5:-------------------------------------------------------------------- 

6:-------------------------------------------------------------------- 

  

N.C. 

1:-15-14-------14-12---------------------------------- 

2:-------17-15-------15-14----14-14-14-15-15-17-17-14- 

3:----------------------------14-14-14-16-16-18-18-14- 

4:---------------------------------------------------- 

5:---------------------------------------------------- 

6:---------------------------------------------------- 

  

  

Lyrics/Song Structure: 

====================== 

---> Play Intro (x1) 

---> Play Riff 1 over: 

He wouldn't say he cared at all if you asked him 

You're heading for a fall brother it goes right past him 

In another world, he's in another place 

You know the need for speed is just another form of greed 

But when you're Jones'n your brains are frozen 

You're not thinkin' about the choices you made you're just rollin' 

On and on it's anybody's guess 

Cause no one's at the wheel at the front of that mess, yes 

---> Play Riff 2 over: 

The sun's going down for me, it's going down for me 

He and she are what I need, yes they're what I need 

But I'm gonna buy a ticket, I'm not gonna even pick it 

I heard it he said it I heard it but it we but it went something like 

---> Play Chorus over: 

Visit, I wanna visit the world 

So now I visit the world 

With my time on this world 

---> Play Fill (x1) 

---> Play Riff 1 over: 

Because living when you're hungry is a dog in an alley 

Now I mind my own business cause I'm rhymin' down in Cali 

I ain't playin when sayin' kings of the ghetto feel they losing ground 

Vato's going loco because everyone's brought down 

This is a visit to then we dead fade to dust strickin' 

I'm wearing my Doc Martens cause I'm always down for kickin' 

This my friend the city pity everywhere the enemy 

Ready or not homey stompin' everyone in front of me 

---> Play Riff 2 over: 

Jump up and down cause that's the 311 style 

Crusin' by the frowners, follow me now with a smile 

Looking at the ocean, I say there's plenty 

Looking at the river, I say there's plenty 

---> Play Chorus over: 

Visit, I wanna visit the world 

So now I visit the world 

With my time on this world 

---> Play Bridge 

---> Play Riff 2 over: 

Jump up and down cause that's the 311 style 

Cruise on by the frowners float follow me with a smile 

I got a golden ticket, I'm not gonna even pick it 

I heard it he said it I heard it but it went something like 

---> Play Chorus over: 

Visit, I wanna visit the world 

So now I visit the world 

With my time on this world 

Visit, I wanna visit the world 

So now I visit the world 

With my time on this world 

---> Play Ending Solo
Добавлено: 26.07.2012
Другие материалы по этой песне:

Страница создана 01.03.2012
http://primanota.ru/311/visit-chords.htm
Привет, Гость.
Предлагаем пройти революционный курс по гитаре.
Подарок от PrimaNota.Ru, забирай!