PrimaNota.ru - самый крупный в мире бесплатный архив песенных текстов, аккордов, табулатур и нот


311 - Weightless - таба, видео

Регистрация Запомнить меня
Войти через:  Facebook Google Twitter Vk Yandex Mail.ru

311 - Weightless - таба, видео

Печатать
Просмотров: 177
311
"Weightless"
Universal Pulse

Standard Tuning

Intro
Guitar 1
e----------------8-11----------------8-11-----8-9-8~---|
b--------------9------9------------9------9------------|
g-6--/10~---10----------8~------10----------8----------|
d------------------------------------------------------|
a------------------------------------------------------|
E------------------------------------------------------|

e------8-11--------8-9-11-9-8-9-8----8---------------------------|
b----9------9---------------------11---11-9-11-9----9------------|
g-10----------8~---------------------------------10----10-8--6~--|
d----------------------------------------------------------------|
a----------------------------------------------------------------|
E----------------------------------------------------------------|
Guitar 2
x3
e-------------------------|
b-------------------------|
g-6-6-6-6-6-6-------------|
d-6-6-6-6-6-6-6-6-6-6-6-6-|
a-4-4-4-4-4-4-6-6-6-6-6-6-|
E-4-4-4-4-4-4-4-4-4-4-4-4-|
then - x1
e--------------------------|
b--------------------------|
g-101010101010-8-8-8-8-8-8-|
d-101010101010-8-8-8-8-8-8-|
a--8-8-8-8-8-8-6-6-6-6-6-6-|
E--8-8-8-8-8-8-6-6-6-6-6-6-|

Verse
x3
e------4~-------|
b-6~---4~-------|
g-6~---5~-------|
d-6~---6~-------|
a---------------|
E---------------|
"Every one of us is weightless"
e--------------------------|
b--------------------------|
g-101010101010-8-8-8-8-8-8-|
d-101010101010-8-8-8-8-8-8-|
a--8-8-8-8-8-8-6-6-6-6-6-6-|
E--8-8-8-8-8-8-6-6-6-6-6-6-|

Chorus
e------------------------------------------|
b------------------------------------------|
g------------------------------------------|
d------3-x6------------------3-x6----------|
a-4-x4------6--x3~----4-4-4------6--x3h4r3-|
E------------------------------------------|

e----------------------------------------------|
b----------------------------------------------|
g---------------------101010101010-8-8-8-8-8-8-|
d------3-x6-----------101010101010-8-8-8-8-8-8-|
a-4-x4------6--x3~-----8-8-8-8-8-8-6-6-6-6-6-6-|
E----------------------8-8-8-8-8-8-6-6-6-6-6-6-|

Bridge
x2
e----------------------------|
b----------------------------|
g----------------------------|
d--------8-10x--------5-6-8--|
a-8-8-11-------6--6-6--------|
E----------------------------|

e---------------------------|
b---------------------------|
g---------------------------|
d---------6x--6--6-6--------|
a-4-4-6-8-----6--6-6-3-4-6--|
E-------------4--4-4--------|

Bridge Part 2
e-----------------------------------------------|
b-----------------------------------------------|
g-10101010-8--8-8-8-8-8-6-6-6-6-6-5---5-5-5-5-5-|
d-10101010-8--8-8-8-8-8-6-6-6-6-6-6---6-6-6-6-6-|
a--8-8-8-8-6--6-6-6-6-6-4-4-4-4-4-6---6-6-6-6-6-|
E--8-8-8-8-6--6-6-6-6-6-4-4-4-4-4-4---4-4-4-4-4-|

e--------------------------------------------------|
b--------------------------------------------------|
g-10101010-8--8-8-8-8-8-6--------------------------|
d-10101010-8--8-8-8-8-8-6------6------8------6-6---|
a--8-8-8-8-6--6-6-6-6-6-4------3------8------6-6---|
E--8-8-8-8-6--6-6-6-6-6-4-------------6------4-4---|
Добавлено: 28.04.2012
Другие материалы по этой песне:

Страница создана 26.03.2012
http://primanota.ru/311/weightless-chords.htm
Привет, Гость.
Предлагаем пройти революционный курс по гитаре.
Подарок от PrimaNota.Ru, забирай!