PrimaNota.ru - самый крупный в мире бесплатный архив песенных текстов, аккордов, табулатур и нот


311 - Dont Dwell - текст песни, таба, бас-таба, видео

Регистрация Запомнить меня
Войти через:  Facebook Google Twitter Vk Yandex Mail.ru

311 - Dont Dwell - текст песни, таба, бас-таба, видео

Печатать
Просмотров: 231
Уроки эстрадного вокала в Санкт-Петербурге
-----------------------------------------------------------------------
Don't Dwell - 311
-----------------------------------------------------------------------
Tabbed by: Ryanst1
Email: nofxya23@yahoo.com

Tuning: Standard

    VERSE 1
e|---------------------------------------------------------------------------|
B|---------------------------------------------------------------------------|
G|---------------------------------------------------------------------------|
D|---------------------------------------------------------------------------|
A|---------x--5--2—-x--5—-2—-0--0--0h2----------x--5--2--x--5--2--x—2—2------|
E|----3h5----------------------------------3h5-------------------------------|
     
    
 VERSE 2
E|---------------------------------------------------------------------------|
B|---------------------------------------------------------------------------|
G|---------------------------------------------------------------------------|
D|---------------------------------------------------------------------------|
A|-------------0--------0-----0-----------------0--------0-----0-------------|
E|-----0h3--x-----3--x-----3------------0h3--x-----3—-x-----3----------------|
  

   VERSE 3
e|---------------------------------------------------------------------------|
B|---------------------------------------------------------------------------|
G|-------------------------------------------------------2--4--55555555------|
D|-------------------------------------------------------2--4--55555555------|
A|-------------0--------0-----0----------------0---------0--2--33333333------|
E|-----0h3--x-----3--x-----3------------0h3—x-----3--x-----------------------|

e|-------------8--8----------------------------------------------------------|
B|-----7777----8--8----------------------------------------------------------|
G|-----7777----9--9----------------------------------------------------------|
D|-----7777----10-10---------------------------------------------------------|
A|-----5555------------------------------------------------------------------|
E|---------------------------------------------------------------------------|
      


Chorus
e|-------7---10---------7---10-8-7-6~-------6--------------6-----------------|
B|-----8---8----7-8-8-----8-------------8-----8--------8-----8---------------|
G|--/9----------------9---------------8---8-----8-8--8---8-----8-7~--7777777-|
D|---------------------------------------------------------------------------|
A|---------------------------------------------------------------------------|
E|---------------------------------------------------------------------------|
    



 END 1
e|---------------------------------------------------------------------------|
B|---------------------------------------------------------------------------|
G|------------------9\5------------------------------------------------------|
D|---5-5-7-7-9-9-10-9\5—-----------------------------------------------------|
A|---5-5-7-7-9-9-10-7\3------------------------------------------------------|
E|---3-3-5-5-7-7-8-----------------------------------------------------------|

     END 2
e|---------------------------------------------------------------------------|
B|---------------------------------------------------------------------------|
G|-----------------9\5-5-55555-5555------------------------------------------|
D|----5-5-7-7-9-10-9\5-5-55555-5555---5--------------------------------------|
A|----5-5-7-7-9-10-7\3—3-33333-3333---5--------------------------------------|
E|----3-3-5-5-7-8---------------------3--------------------------------------|



ORDER: 
-	Verse 1 x4
-	Verse 2 
-	Verse 1 
-	Verse 3 
-	Chorus
-	Verse 1 x3 
-	Verse 2 
-	Verse 1 
-	Verse 3 
-	Chorus 
-	Verse 1 
-	End 1 x2 
-	End 2 
-	End 1 x@ 
-	End 2




| /  slide up
| \  slide down
| h  hammer-on
| p  pull-off
| ~  vibrato
| +  harmonic
| x  Mute note
=======================================================================
Добавлено: 24.04.2012
Другие материалы по этой песне:

Страница создана 24.04.2012
http://primanota.ru/311/dont-dwell-chords.htm
Привет, Гость.
Предлагаем пройти революционный курс по гитаре.
Подарок от PrimaNota.Ru, забирай!