PrimaNota.ru - самый крупный в мире бесплатный архив песенных текстов, аккордов, табулатур и нот


311 - Thank Your Lucky Stars - таба, видео

Регистрация Запомнить меня
Войти через:  Facebook Google Twitter Vk Yandex Mail.ru

311 - Thank Your Lucky Stars - таба, видео

Печатать
Просмотров: 190
“Thank Your Lucky Stars” by: 311

Music By: Nick Hexum, Tim Mahoney, Aaron Wills, Chad Sexton
Lyrics By: Nick Hexum, Doug Martinez

Tabbed by: Chris Gill
Email: CGill1403@aol.com

Tuning: E A D G B e

Album Version

e|-----------------------------------------------------------|
B|-----------------------------------------------------------|
G|-----------------------------------------------------------|
D|-----------------------------------------------------------| x6
A|--9-9-9-9--7--9--4---4--4--7---9-9-9-9--7--9--4---4--4--7--|
E|--7-7-7-7--5--7--2---2--2--5---7-7-7-7--5--7--2---2--2--5--|

e|-----------------------------------------------------------|
B|-----------------------------------------------------------|
G|-----------------------------------------------------------|
D|-----------------------------------------------------------|
A|--7-7-7-7--9--7--4---4--4--6---7-7-7-7--9--7--4---4--4--6--|
E|--5-5-5-5--7--5--2---2--2--4---5-5-5-5--7--5--2---2--2--4--|

e|-----------------------------------------------------------|
B|-----------------------------------------------------------|
G|-----------------------------------------------------------|
D|-----------------------------------------------------------|
A|--9-9-9-9--7--9--4---4--4--7---9-9-9-9--7--9--4---4--4--7--|
E|--7-7-7-7--5--7--2---2--2--5---7-7-7-7--5--7--2---2--2--5--|

e|-----------------------------------------------------------|
B|-----------------------------------------------------------|
G|-----------------------------------------------------------|
D|-----------------------------------------------------------|
A|--7-7-7-7--9--7--4---4--4--6---7-7-7-7--9--7--4---4--4--6--|
E|--5-5-5-5--7--5--2---2--2--4---5-5-5-5--7--5--2---2--2--4--|

e|-----------------------------------------------------------|
B|-----------------------------------------------------------|
G|-----------------------------------------------------------|
D|-----------------------------------------------------------|
A|--9-9-9-9--7--9--4---4--4--7---9-9-9-9--7--9--4---4--4--7--|
E|--7-7-7-7--5--7--2---2--2--5---7-7-7-7--5--7--2---2--2--5--|


e|---------------------------------------------------------|
B|---9----9----4-----------------7----7----2---------------|
G|---9----9----4-----------------7----7----2---------------|
D|---9----9----4----4---6---7----7----7----2----2---4---5--| x4
A|---7----7----2-----------------5----5----0---------------|
E|---------------------------------------------------------|

e|-----------------------------------------------------------|
B|-----------------------------------------------------------|
G|-----------------------------------------------------------|
D|-----------------------------------------------------------| x5
A|--9-9-9-9--7--9--4---4--4--7---9-9-9-9--7--9--4---4--4--7--|
E|--7-7-7-7--5--7--2---2--2--5---7-7-7-7--5--7--2---2--2--5--|

e|-----------------------------------------------------------|
B|-----------------------------------------------------------|
G|-----------------------------------------------------------|
D|-----------------------------------------------------------|
A|--7-7-7-7--9--7--4---4--4--6---7-7-7-7--9--7--4---4--4--6--|
E|--5-5-5-5--7--5--2---2--2--4---5-5-5-5--7--5--2---2--2--4--|

e|-----------------------------------------------------------|
B|-----------------------------------------------------------|
G|-----------------------------------------------------------|
D|-----------------------------------------------------------|
A|--9-9-9-9--7--9--4---4--4--7---9-9-9-9--7--9--4---4--4--7--|
E|--7-7-7-7--5--7--2---2--2--5---7-7-7-7--5--7--2---2--2--5--|

e|-----------------------------------------------------------|
B|-----------------------------------------------------------|
G|-----------------------------------------------------------|
D|-----------------------------------------------------------|
A|--7-7-7-7--9--7--4---4--4--6---7-7-7-7--9--7--4---4--4--6--|
E|--5-5-5-5--7--5--2---2--2--4---5-5-5-5--7--5--2---2--2--4--|

e|-----------------------------------------------------------|
B|-----------------------------------------------------------|
G|-----------------------------------------------------------|
D|-----------------------------------------------------------|
A|--9-9-9-9--7--9--4---4--4--7---9-9-9-9--7--9--4---4--4--7--|
E|--7-7-7-7--5--7--2---2--2--5---7-7-7-7--5--7--2---2--2--5--|

e|---------------------------------------------------------|
B|---9----9----4-----------------7----7----2---------------|
G|---9----9----4-----------------7----7----2---------------|
D|---9----9----4----4---6---7----7----7----2----2---4---5--| x4
A|---7----7----2-----------------5----5----0---------------|
E|---------------------------------------------------------|

e|-----------------------------------------------------------|
B|-----------------------------------------------------------|
G|-----------------------------------------------------------|
D|-----------------------------------------------------------| ->
A|--4--4--4--2--4--2--4--2-2--4--4--4--2--4------------------|
E|--2--2--2--0--2--0--2--0-0--2--2--2--0--2--2*2*2*3*4*5*5*--|

e|----------------------------------------------------------|
B|----------------------------------------------------------|
G|----------------------------------------------------------|
D|----------------------------------------------------------| x2
A|--4--4--4--2--4----------------4--4--4--2--4--------------|
E|--2--2--2--0--2--2-3-5-6-5-3-2-2--2--2--0--2--5*5*5*3*2*--|

e|-----------------------------------------|
B|-----------------------------------------|
G|-----------------------------------------|
D|-----------------------------------------|
A|--2---2---7---9--10--10--10-10-10-10-10--|
E|--0---0---5---7---8---8---8--8--8--8--8--|


e|---------------------------------------------------------|
B|---9----9----4-----------------7----7----2---------------|
G|---9----9----4-----------------7----7----2---------------|
D|---9----9----4----4---6---7----7----7----2----2---4---5--| x4
A|---7----7----2-----------------5----5----0---------------|
E|---------------------------------------------------------|


| /  slide up
| \  slide down
| h  hammer-on
| p  pull-off
| ~  vibrato
| *  harmonic
| x  Mute note
| -> Sections are Together
===============================================================================

Добавлено: 07.07.2012
Другие материалы по этой песне:
  • Аккорды и текст

Страница создана 29.04.2012
http://primanota.ru/311/thank-your-lucky-stars-chords.htm
Привет, Гость.
Предлагаем пройти революционный курс по гитаре.
Подарок от PrimaNota.Ru, забирай!