PrimaNota.ru - самый крупный в мире бесплатный архив песенных текстов, аккордов, табулатур и нот


311 - Thrive Not Sink - бас-таба, видео

Регистрация Запомнить меня
Войти через:  Facebook Google Twitter Vk Yandex Mail.ru

311 - Thrive Not Sink - бас-таба, видео

Печатать
Просмотров: 140
Уроки эстрадного вокала в Санкт-Петербурге
 -------------------------------------------------------------------------------
			     Thrive Not Sink - 311
 -------------------------------------------------------------------------------

Tabbed By : Derek El-Diqran
e-mail: thetrueeldiablo@aim.com



 Intro:

G|-------------------------------|
D|-------------------------------|
A|-------------------------------|
E|--5\-----5\-----5--5---5-5-5-5-|

 Breakdown:

G|---------2p---------4p---------5p----------4p--|
D|-----------------------------------------------|
A|--0s-0s------2s-2s------3s-3s-------2s-2s------|
E|-----------------------------------------------|

G|---------2p------------------------------------|
D|--------------------5p---------4p----------5p--|
A|--0s-0s----------------------------------------|
E|-------------3s-3s------2s-2s-------3s-3s------|

G|---------2p---------4p---------5p----------4p--|
D|-----------------------------------------------|
A|--0s-0s------2s-2s------3s-3s-------2s-2s------|
E|-----------------------------------------------|

G|---------2p------------------------------------|
D|--------------------5p---------4p----------5p--|
A|--0s-0s----------------------------------------|
E|-------------3s-3s------2s-2s-------3s-3s------|

G|---------2p---------4p---------5p----------4p--|
D|-----------------------------------------------|
A|--0s-0s------2s-2s------3s-3s-------2s-2s------|
E|-----------------------------------------------|

G|---------2p---------5p-----------------------------------------------------|
D|--------------------------------4p-----------------------------------------|
A|--0s-0s--------------------------------------------------------3-3---------|
E|-------------3s-3s-------2s-2s-----3s-5s\----5s\-----5s---5s--------0-1-3--|

 Verse:

G|------------------------------------------------------|
D|--------2--5------7-7---------------------------------|
A|--3---3---------------7--3---------2-----2-2--3--3/5--|
E|---------------5-------------0---3----3---------------|

G|------------------------------------------------------|
D|-----2---2h3--5------7-7---------------3--------------|
A|--3----3------------------7--3------------------------|
E|-------------------5--------------1--1---1---3-3-3-3--|

--"So your finding it easier to find........."

G|------------------------------------------------------|
D|--------2--5------7-7---------------------------------|
A|--3---3---------------7--3---------2-----2-2--3--3/5--|
E|---------------5-------------0---3----3---------------|

G|------------------------------------------------------|
D|-----2---2h3--5------7-7---------------3--------------|
A|--3----3------------------7--3------------------------|
E|-------------------5--------------1--1---1---3-3-3-3--|

G|------------------------------------------------------|
D|--------2--5------7-7---------------------------------|
A|--3---3---------------7--3---------2-----2-2--3--3/5--|
E|---------------5-------------0---3----3---------------|

G|------------------------------------------------------|
D|-----2---2h3--5------7-7---------------3--------------|
A|--3----3------------------7--3------------------------|
E|-------------------5--------------1--1---1---3-3-3-3--|


 Fill:
--"Thrive not sink..."

G|--------------------------------------------------------------------------------|
D|--------------------------------------------------------------------------------|
A|--3-3-3--------3-3-3-------3333------3-3-3----------5----------------------2-3--|
E|----------------------------------------------------------3------3-3--3-5-------|

Breakdown:

G|---------2p---------4p---------5p----------4p--|
D|-----------------------------------------------|
A|--0s-0s------2s-2s------3s-3s-------2s-2s------|
E|-----------------------------------------------|

G|---------2p------------------------------------|
D|--------------------5p---------4p----------5p--|
A|--0s-0s----------------------------------------|
E|-------------3s-3s------2s-2s-------3s-3s------|

G|---------2p---------4p---------5p----------4p--|
D|-----------------------------------------------|
A|--0s-0s------2s-2s------3s-3s-------2s-2s------|
E|-----------------------------------------------|

G|---------2p------------------------------------|
D|--------------------5p---------4p----------5p--|
A|--0s-0s----------------------------------------|
E|-------------3s-3s------2s-2s-------3s-3s------|

G|---------2p---------4p---------5p----------4p--|
D|-----------------------------------------------|
A|--0s-0s------2s-2s------3s-3s-------2s-2s------|
E|-----------------------------------------------|

G|---------2p---------5p------------------------------------------------------|
D|------------------------------4p--------------------------------------------|
A|--0s-0s-------------------------------------------------------3-3-----------|
E|-------------3s-3s------2s-2s------3s-5s\----5s\-----5s---5s---------0-1-3--|

Verse (with change up):

G|------------------------------------------------------|
D|--------2--5------7-7---------------------------------|
A|--3---3---------------7--3---------2-----2-2--3--3/5--|
E|---------------5-------------0---3----3---------------|

G|------------------------------------------------------|
D|-----2---2h3--5------7-7---------------3--------------|
A|--3----3------------------7--3------------------------|
E|-------------------5--------------1--1---1---3-3-3-3--|

G|------------------------------------------------------|
D|--------2--5------7-7---------------------------------|
A|--3---3---------------7--3---------2-----2-2--3--3/5--|
E|---------------5-------------0---3----3---------------|


                                              "but dont you have to-

G|------------------------------------------------------|
D|-----2---2h3--5------7-7---------------3--------------|
A|--3----3------------------7--3------------------------|
E|-------------------5--------------1--1---1---3-3-3-3--|

  -stop!....."     

G|------------------------------------------------------|
D|------------------7-7---------------------------------|
A|----------------------7--3---------2-----2-2--3--3/5--|
E|---------------5-------------0---3----3---------------|

G|------------------------------------------------------|
D|-----2---2h3--5------7-7---------------3--------------|
A|--3----3------------------7--3------------------------|
E|-------------------5--------------1--1---1---3-3-3-3--|

Fill:
--"Thrive not sink..."

G|--------------------------------------------------------------------------------|
D|--------------------------------------------------------------------------------|
A|--3-3-3--------3-3-3-------3333------3-3-3----------5----------------------2-3--|
E|----------------------------------------------------------3------3-3--3-5-------|

Breakdown:

G|---------2p---------4p---------5p----------4p--|
D|-----------------------------------------------|
A|--0s-0s------2s-2s------3s-3s-------2s-2s------|
E|-----------------------------------------------|

G|---------2p------------------------------------|
D|--------------------5p---------4p----------5p--|
A|--0s-0s----------------------------------------|
E|-------------3s-3s------2s-2s-------3s-3s------|

G|---------2p---------4p---------5p----------4p--|
D|-----------------------------------------------|
A|--0s-0s------2s-2s------3s-3s-------2s-2s------|
E|-----------------------------------------------|

G|---------2p------------------------------------|
D|--------------------5p---------4p----------5p--|
A|--0s-0s----------------------------------------|
E|-------------3s-3s------2s-2s-------3s-3s------|

G|---------2p---------4p---------5p----------4p--|
D|-----------------------------------------------|
A|--0s-0s------2s-2s------3s-3s-------2s-2s------|
E|-----------------------------------------------|

G|---------2p---------5p-----------------------------------------------------|
D|-----------------------------4p--------------------------------------------|
A|--0s-0s------------------------------------------------------3-3-----------|
E|-------------3s-3s-------2s-------3s-5s\----5s\-----5s---5s----------0-1-3-|

Verse:

G|------------------------------------------------------|
D|--------2--5------7-7---------------------------------|
A|--3---3---------------7--3---------2-----2-2--3--3/5--|
E|---------------5-------------0---3----3---------------|

G|------------------------------------------------------|
D|-----2---2h3--5------7-7---------------3--------------|
A|--3----3------------------7--3------------------------|
E|-------------------5--------------1--1---1---3-3-3-3--|

Fill:
--"Thrive not sink..."

G|--------------------------------------------------------------------------------|
D|--------------------------------------------------------------------------------|
A|--3-3-3--------3-3-3-------3333------3-3-3----------5----------------------2-3--|
E|----------------------------------------------------------3------3-3--3-5-------|

Breakdown (ending):

G|---------2p---------4p---------5p----------4p--|
D|-----------------------------------------------|
A|--0s-0s------2s-2s------3s-3s-------2s-2s------|
E|-----------------------------------------------|

G|---------2p------------------------------------|
D|--------------------5p---------4p----------5p--|
A|--0s-0s----------------------------------------|
E|-------------3s-3s------2s-2s-------3s-3s------|

G|---------2p---------4p---------5p----------4p--|
D|-----------------------------------------------|
A|--0s-0s------2s-2s------3s-3s-------2s-2s------|
E|-----------------------------------------------|

G|---------2p------------------------------------|
D|--------------------5p---------4p----------5p--|
A|--0s-0s----------------------------------------|
E|-------------3s-3s------2s-2s-------3s-3s------|

G|---------2p---------4p---------5p----------4p--|
D|-----------------------------------------------|
A|--0s-0s------2s-2s------3s-3s-------2s-2s------|
E|-----------------------------------------------|

G|---------2p---------5p----------------------------------------------------------|
D|--------------------------------4p----------------------------------------------|
A|--0s-0s-------------------------------------------------------3-3------------3--|
E|-------------3s-3s-------2s-2s-----3s-5s\----5s\-----5s---5s----------0-1-3-----|




| /  slide up
| \  slide down
| s  slap
| p  pop
| h  hammer-on
Добавлено: 28.03.2012
Другие материалы по этой песне:
  • Аккорды и текст

Страница создана 28.03.2012
http://primanota.ru/311/thrive-not-sink-chords.htm
Привет, Гость.
Предлагаем пройти революционный курс по гитаре.
Подарок от PrimaNota.Ru, забирай!