PrimaNota.ru - самый крупный в мире бесплатный архив песенных текстов, аккордов, табулатур и нот


311 - Six - текст песни, таба, бас-таба, видео

Регистрация Запомнить меня
Войти через:  Facebook Google Twitter Vk Yandex Mail.ru

311 - Six - текст песни, таба, бас-таба, видео

Печатать
Просмотров: 293
----------------------------------------------------------------------------
                                 311 - Six
                              Grassroots(1994)
----------------------------------------------------------------------------

tabbed by: JesseLaceyIsGod
 ilikesubs123@aol.com



2 guitars:
 Tim - Guitar 1(eBGDAE)
 Nick - Guitar 2(eBGDAE)



Intro / Verse 1
(0:00)
Tim:
e|-------------------------|
B|-------------------------|
G|-------------------------|
D|-------------------------|
A|----4-5--4------4--5-4---|
E|-2---------2-3---------3-| 8x


(0:25)
Tim:
e|-------------------------|-------------------------|
B|-------------------------|-------------------------|
G|-------------------------|-------------------------|
D|-------------------------|-------------------------|
A|---4-5-7-5-----4-5-4-----|----4-5--4------4--5-4---|
E|-5---------5-3---------3-|-2---------2-3---------3-|

e|-------------------------|-------------------------|
B|-------------------------|-------------------------|
G|-------------------------|-------------------------|
D|-------------------------|-------------------------|
A|---4-5-7-5-----4-5-4-----|----4-5--4------4--5-4-4-|
E|-5---------5-3---------3-|-2---------2-3-----------|



Chorus
(0:37)
Tim:
e|-3-X-X-3-X-X-3--5-X-X-5-X-X-5-|-3-X-X-3-X-X-3--3-X-X-3-X-X-3-|
B|-3-X-X-3-X-X-3--6-X-X-6-X-X-6-|-3-X-X-3-X-X-5--3-X-X-3-X-X-3-|
G|-5-X-X-5-X-X-5--5-X-X-5-X-X-5-|-5-X-X-5-X-X-5--4-X-X-4-X-X-4-|
D|----------------7-X-X-7-X-X-7-|------------------------------|
A|------------------------------|------------------------------|
E|------------------------------|------------------------------|

e|-3-X-X-3-X-X-3--5-X-X-5-X-X-5-|-3-X-X-3-X-X-3-3--------------|
B|-3-X-X-3-X-X-3--6-X-X-6-X-X-6-|-3-X-X-3-X-X-5-3--------------|
G|-5-X-X-5-X-X-5--5-X-X-5-X-X-5-|-5-X-X-5-X-X-5-4--------------|
D|----------------7-X-X-7-X-X-7-|------------------------------|
A|------------------------------|-------------------------7--5-|
E|------------------------------|-------------------------5--3-|



Verse 2
(0:51)
Tim:
e|-------------------------|
B|-------------------------|
G|-------------------------|
D|-------------------------|
A|----4-5--4------4--5-4---|
E|-2---------2-3---------3-| 3x

e|-------------------------|
B|-------------------------|
G|-------------------------|
D|-------------------------|
A|----4-5--4-----5-5-5-5-5-|
E|-2---------2-3-3-3-3-3-3-|


(1:03)
Tim:
e|-------------------------|
B|-------------------------|
G|-------------------------|
D|-------------------------|
A|----4-5--4------4--5-4---|
E|-2---------2-3---------3-| 4x

e|-------------------------|-------------------------|
B|-------------------------|-------------------------|
G|-------------------------|-------------------------|
D|-------------------------|-------------------------|
A|---4-5-7-5-----4-5-4-----|----4-5--4------4--5-4---|
E|-5---------5-3---------3-|-2---------2-3---------3-| 2x



Chorus
(1:29)
Tim:
e|-3-X-X-3-X-X-3--5-X-X-5-X-X-5-|-3-X-X-3-X-X-3--3-X-X-3-X-X-3-|
B|-3-X-X-3-X-X-3--6-X-X-6-X-X-6-|-3-X-X-3-X-X-5--3-X-X-3-X-X-3-|
G|-5-X-X-5-X-X-5--5-X-X-5-X-X-5-|-5-X-X-5-X-X-5--4-X-X-4-X-X-4-|
D|----------------7-X-X-7-X-X-7-|------------------------------|
A|------------------------------|------------------------------|
E|------------------------------|------------------------------|

e|-3-X-X-3-X-X-3--5-X-X-5-X-X-5-|-3-X-X-3-X-X-3-3--------------|
B|-3-X-X-3-X-X-3--6-X-X-6-X-X-6-|-3-X-X-3-X-X-5-3--------------|
G|-5-X-X-5-X-X-5--5-X-X-5-X-X-5-|-5-X-X-5-X-X-5-4--------------|
D|----------------7-X-X-7-X-X-7-|------------------------------|
A|------------------------------|-------------------------5--3-|
E|------------------------------|-------------------------3--1-|





(1:41)
Tim:
e|------------------------------|------------------------------------|
B|------------------------------|------------------------------------|
G|------------------------------|------------------------------------|
D|-----------------X------------|------------------------------------|
A|-2------2----2------------2-2-|-2------2----2-3-3-3----------------|
E|-0------0----0------0-3-5-----|-0------0----0-------2-2-3--2h3p2h3-|

e|------------------------------|------------------------------------|
B|------------------------------|------------------------------------|
G|------------------------------|------------------------------------|
D|------------------------------|------------------3-2--------3-2----|
A|-2------2----2------------2-2-|-2------2----2---------3-1--------3-|
E|-0------0----0------0-3-5-----|-0------0----0----------------------|

e|------------------------------|------------------------------------|
B|------------------------------|------------------------------------|
G|------------------------------|------------------------------------|
D|------------------5---2-------|------------------------------------|
A|-2------2----2------5---2---5-|-2------2----2---3-2--2-0--0--------|
E|-0------0----0--3---------3---|-0------0----0----------------3-3-2-|

e|--------------------------------|----------------------------------------|
B|--------------------------------|----------------------------------------|
G|--------------------------------|----------------------------------------|
D|----------------5-4-3-2-1-------|----------------------------------------|
A|-2------2----2------------5-4-3-|-2-1--------------------------2-3-4-5-6-|
E|-0------0----0------------------|-----5-4-3-2-1-0--1-2-3-4-5-6-----------|
                                     slow tempo        speed up tempo

(2:18)
Tim:
e|------------------------------------|
B|------------------------------------|
G|------------------------------------|
D|------------------------------------|
A|-2------2----2-3-3-3----------------|
E|-0------0----0-------2-2-3--2h3p2h3-|

e|-------------------------------------------------------------|
B|-------------------------------------------------------------|
G|-------------------------------------------------------------|
D|-------------------------------------------------------------|
A|-------------------------------------------------------------|
E|-2h3p2h3p2h3p2h3--2-3-2h3p2h3--2h3p2h3p2h3p2h3p2h3p2h3p2h3p2-|
               (it's MUCH easier than it looks, haha)

e|-------------------------|
B|-------------------------|
G|-------------------------|
D|-------------------------|
A|----4-5--4-----5---5---5-|
E|-2---------2---3---3---3-| 



Outro (2 guitars, finally)
(2:39)
Tim:
e|-------------------------|-------------------------|
B|-------------------------|-------------------------|
G|---6-7-9-7-6-------6-7-6-|---6-7-9-7-6---6-7-4-6-7-|
D|-7-----------5-----------|-4-----------5-----------|
A|---4-5-7-5-4-------4-5-4-|---4-5-7-5-4---4-5-2-4-5-|
E|-5-----------3-----------|-2-----------3-----------| 4x
Nick:
e|-------------------------|-------------------------|
B|-2~~---------3-----------|-2-----------3-----------|
G|-2~~---------0-----------|-2-----------0-----------|
D|-2~~---------0-----------|-2-----------0-----------|
A|-0~~---------X-----------|-4-----------X-----------|
E|-------------3-----------|-2-----------3-----------| 4x


end with:
Tim:
e|-------------------------|-------------------------|
B|-2~~---------------------|-------------------------|
G|-2~~---------------------|-------------------------|
D|-2~~---------7-6-5-4-3-2-|-1-0---------------------|
A|-0~~---------------------|---------2----2----------|
E|-------------------------|---------0----0----------| 
Nick:
e|-------------------------|-------------------------|
B|-------------------------|-------------------------|
G|-0~~---------------------|-------------------------|
D|-0~~---------------------|-------------------------|
A|-7~~---------------------|-------------------------|
E|-9~~---------------------|-------------------------| 




   h: hammer-on
   p: pull-off
   X: play string(s)muted
   ~: let ring
Добавлено: 24.03.2012
Другие материалы по этой песне:

Страница создана 24.02.2012
http://primanota.ru/311/six-chords.htm
Привет, Гость.
Предлагаем пройти революционный курс по гитаре.
Подарок от PrimaNota.Ru, забирай!