PrimaNota.ru - самый крупный в мире бесплатный архив песенных текстов, аккордов, табулатур и нот


311 - Creatures For A While - текст песни, таба, бас-таба, видео

Регистрация Запомнить меня
Войти через:  Facebook Google Twitter Vk Yandex Mail.ru

311 - Creatures For A While - текст песни, таба, бас-таба, видео

Печатать
Просмотров: 201
Авторы музыки: Tim Mahoney, Nick Hexum
Авторы текста: S.A. Martinez, Nick Hexum
-----------------------------------------------------------------------------
			     311-Creatures (For A While)
-----------------------------------------------------------------------------
Tabbed by:jtarpley

Tuning:Standard

Intro Riff Fig. 1(first 3 times)         Intro Riff Fig. 2(4th time)
e|------------------------------|-------------------------------------------|
B|------------------------------|-------------------------------------------|
G|------------------------------|-------------------------------------------|
D|-8\6-6-6-x-6\4-4-4-x-x--------|-8\6-6-6-6-4-x-4-4-------------------------|
A|-6\4-4-4-x-4\2-2-2-x-x--------|-6\4-4-4-4-2-x-2-2-------------------------|
E|-6\4-4-4-x-4\2-2-2-x-x--------|-6\4-4-4-4-2-x-2-2-------------------------|

Verse(you can imitate this part pretty well with a wah)
e|--------------------------------------------------------------------------|
B|--------------------------------------------------------------------------|
G|--------------------------------------------------------------------------|
D|--------------------------------------------------------------------------|
A|--------------------------------------------------------------------------|
E|-1-1-1-4-4-1-1-1----------------------------------------------------------|

Bridge Fig.1(x4)
e|--------------------------------------------------------------------------|
B|--------------------------------------------------------------------------|
G|--------------------------------------------------------------------------|
D|-4-4-4-4-4-4-4-4----------------------------------------------------------|
A|-4-4-4-4-4-4-4-4----------------------------------------------------------|
E|-2-2-2-2-2-2-2-2----------------------------------------------------------|

Bridge Fig.2(x4)
e|--------------------------------------------------------------------------|
B|--------------------------------------------------------------------------|
G|--------------------------------------------------------------------------|
D|-3-x-3--6-x-6-3--x-x-x-x--------------------------------------------------|
A|-3-x-3--6-x-6-3--x-x-x-x--------------------------------------------------|
E|-1-x-1--4-x-4-1--x-x-x-x--------------------------------------------------|

Chorus
e|--------------------------------------------------------------------------|
B|--------------------------------------------------------------------------|
G|--------------------------------------------------------------------------|
D|-6-x-4-x-7-x-6-4-x-7------------------------------------------------------|
A|-6-x-4-x-7-x-6-4-x-7------------------------------------------------------|
E|-4-x-2-x-5-x-4-2-x-5------------------------------------------------------|

Interlude(x3)
e|--------------------------------------------------------------------------|
B|--------------------------------------------------------------------------|
G|--------------------------------------------------------------------------|
D|-6-x-6-x-6-x-6-x-7-x-7-x-7-x-7-x------------------------------------------|
A|-6-x-6-x-6-x-6-x-7-x-7-x-7-x-7-x------------------------------------------|
E|-4-x-4-x-4-x-4-x-5-x-5-x-5-x-5-x------------------------------------------|

e|---------------------------------------------------------------------------
B|---------------------------------------------------------------------------
G|---------------------------------------------------------------------------
D|---------------------------------------------------------------------------
A|---------------------------------------------------------------------------
E|---------------------------------------------------------------------------

e|---------------------------------------------------------------------------
B|---------------------------------------------------------------------------
G|---------------------------------------------------------------------------
D|---------------------------------------------------------------------------
A|---------------------------------------------------------------------------
E|---------------------------------------------------------------------------


************************************

| /   slide up
| \   slide down
| h   hammer-on
| p   pull-off
| ~   vibrato
| +   harmonic
| x   Mute note
| b   Bend
| pb  Pre-bend
| br  Bend release
| pbr Pre-bend release
| brb Bend release bend

************************************
Добавлено: 31.05.2014
Другие материалы по этой песне:

Страница создана 28.02.2012
http://primanota.ru/311/creatures-for-a-while-chords.htm
Привет, Гость.
Предлагаем пройти революционный курс по гитаре.
Подарок от PrimaNota.Ru, забирай!