Войти:  Facebook Google Twitter Vk Yandex Mail.ru
PrimaNota.ru - самый крупный в мире бесплатный архив песенных текстов, аккордов, табулатур и нот


Simon Viklund - Clean Getaway - таба, видео

Печатать
Просмотров: 276
Лучшая metal-группа Петербурга

Clean Getaway

  • аккорды и текст

-------------------------------------------------------------------------------
                             Clean Getaway - Simon Viklund
-------------------------------------------------------------------------------
Tabbed by:Alfred
E-mail:affe1996@gmail.com

Tuning:Standard

This is just all the parts but not necessarily in the right order. 
You have to listen to the track to know how many times and when they are played.



e|--24nh------------------12nh------------------7-------------|
B|--24nh------------------12nh------------------x-------------|
G|--24nh------------------12nh------------------9-------------|
D|----------------------------------------------9-------------|
A|----------------------------------------------7-------------|
E|------------------------------------------------------------|



e|------------------------------|
B|---------------------20~\17~--|
G|--12\9~-----------------------|
D|------------------------------|
A|------------------------------|
E|------------------------------|



The Bass plays these parts as well
e|-----------------------------------------|
B|-----------------------------------------|
G|-----------------------------------------|
D|-----------------------------------------|
A|-----------------------------------------|
E|--0-0--0-0-0--0-0-0--0-0-0--0-0-0--0-0-0-|



e|---------------------------------|
B|---------------------------------|
G|---------------------------------|
D|---------------------------------|
A|---------------------------5--7--|
E|--0-0-0-0-0-3--5-0-0-0-0-0-------|



e|---------------------------------|
B|---------------------------------|
G|---------------------------------|
D|---------------------------5--7--|
A|--0-0-0-0-0-3--5-0-0-0-0-0-------|
E|---------------------------------| x3

Played after the part above
e|----------------------------------|
B|----------------------------------|
G|----------------------------------|
D|-------------------5p2---1p0------|
A|--0-0-0-0-0-3--5-0-----0-----3----|
E|-------------------------------1--|



The next bass-parts are slightly different from the guitar-parts though
e|-------------------------------------------------------------|
B|-------------------------------------------------------------|
G|-------------------------------------------------------------|
D|-------------------------------------------------------------|
A|-------------------------------------------------------------|
E|--7-7-7-7--7-7-7-7--7-7-7-7--7-7-7-7--6-6-6-6--6-6-6-6--6~\--|

At the same time the bass plays
G|-----------------------------------------------------------|
D|-----------------------------------------------------------|
A|-----------------------------------------------------------|
E|--7--------7--------7--------7--------6--------6--------6--|



e|-----------------------------------------------------------------------------|
B|-----------------------------------------------------------------------------|
G|-----------------------------------------------------------------------------|
D|--4-4-4-4--4-4-4-4--5-5-5-5--5-5-5-5-----------------------------------------|
A|--------------------------------------1-1-1-1--1-1-1-1--2-2-2-2--------------|
E|-----------------------------------------------------------------3-3-3-3b-0--|

And at the same time
G|-----------------------------------------------------------------------------|
D|--1-1-1-1--1-1-1-1--2-2-2-2--2-2-2-2--4-4-4-4--4-4-4-4--5-5-5-5--------------|
A|-----------------------------------------------------------------------------|
E|-----------------------------------------------------------------3-3-3-3b-0--|



G|-------------------------------------------------------|
D|--0h2-2h5p2-2p0h2-2h5p2-2p0h2-2h5p2-2p0h2-2-2-2-2-2-2--|
A|-------------------------------------------------------|
E|-------------------------------------------------------|


After the part above, the guitar joins again
e|----------------|
B|----------------|
G|----------------|
D|--2p0h2-2h5p2---|
A|----------------|
E|----------------| x7

G|----------------|
D|--2p0h2-2h5p2---|
A|----------------|
E|----------------| x7


Immediately after the last part
e|-------------------|
B|-------------------|
G|-------------------|
D|----5p2---1p0------|
A|--0-----0-----3----|
E|----------------1--|

G|-------------------|
D|----5p2---1p0------|
A|--0-----0-----3----|
E|----------------1--|



************************************

| /   slide up
| \   slide down
| p   pull-off
| h   hammer-on
| ~   vibrato
| x   Mute note
| nh  Natural harmonic

************************************
Добавлено: 08.08.2014
Другие материалы по этой песне:
  • Аккорды и текст

Страница создана 08.08.2014
https://primanota.ru/simon-viklund/clean-getaway-chords.htm

Привет, гитарист!

Тебе подарок от сайта PrimaNota.ru

Забрать подарок
ВАМ ПОДАРКИ ОТ ПРОЕКТА
"ГИТАРНАЯ РЕВОЛЮЦИЯ"