Войти:  Facebook Google Twitter Vk Yandex Mail.ru
PrimaNota.ru - самый крупный в мире бесплатный архив песенных текстов, аккордов, табулатур и нот


Shawn Mendes - Señorita - аккорды

Нотный режим - новая уникальная возможность на нашем сайте!

Señorita
Shawn Mendes
[ Предположительная тональность: F ]

Easy to play open chords:
   Gm                        G7M                       F7M                        Gm7         C
e|----0-----0-----0------0-|----0-----0-----0------0-|---0-------0----0-------0-|----0-----0-----3--------3--|
B|----1-----1-----1------1-|----0-----0-----0------0-|---1-------1----1-------1-|----0-----0-----3--------3--|
G|----2-----2-----2------2-|----0-----0-----0------0-|---2-------2----2-------2-|----0-----0-----0--------0--|
D|------2-2----------------|-------------------------|--------------------------|----------------------------|
A|-0-----------0----0--0---|-3----3-3----3----3--3---|-----3--3-----------------|----------------------------|
E|-------------------------|-------------------------|-1------------1----1--1---|-0----0-0----3-----3---3----|

Barre chords to match voicing of released single:
   Gm                        G7M                       F7M                        Gm7         C
e|-------------------------|-------------------------|--------------------------|----------------------------|
B|----5-----5-----5------5-|----5-----5-----5------5-|---10-----10----10-----10-|----8-----8-----12-------12-|
G|----5-----5-----5------5-|----4-----4-----4------4-|----9------9-----9------9-|----7-----7-----12-------12-|
D|----7-----7-----7------7-|----5-----5-----5------5-|---10-----10----10-----10-|----9-----9-----12-------12-|
A|------7-7----------------|-3----3-3----3----3--3---|-8----8-8-----8----8--8---|-7----7-7----10----10-10----|
E|-5-----------5----5--5---|-------------------------|--------------------------|----------------------------|



Gm  G7M    F7M    Gm7  C


[Chorus 1]
                   Gm
I love it when you call me señorita
                  G7M  
I wish I could pretend I didn't need ya
                   F7M  
But every touch is ooh-la-la-la, it's true la-la-la
 Gm7
Ooh, I should be runnin'
C                           Gm
Ooh, you keep me comin' for ya


[Verse 1]
                                           G7M  
Land in Miami, the air was hot from summer rain
                                              F7M  
Sweat drippin' off me, before I even knew her name, la-la-la
             Gm7           C
It felt like ooh-la-la-la, yeah, no

Gm                                                    G7M  
   Sapphire and moonlight, we danced for hours in the sand
                                          F7M  
Tequila sunrise, her body fit right in my hands, la-la-la
             Gm7           C
It felt like ooh-la-la-la, yeah


[Chorus 2]
N.C.               Gm
I love it when you call me señorita
                  G7M  
I wish I could pretend I didn't need ya
                   F7M  
But every touch is ooh-la-la-la, it's true la-la-la
 Gm7
Ooh, I should be runnin'
C
Ooh, you know I love it when you

Gm
Call me señorita
                 G7M  
I wish it wasn't so damn hard to leave ya
                   F7M  
But every touch is ooh-la-la-la, it's true la-la-la
 Gm7
Ooh, I should be runnin'
C                           Gm
Ooh, you keep me comin' for ya


[Verse 2]
                                                         G7M  
Locked in the hotel, there's just some things that never change
                                                               F7M  
You say we're just friends, but friends don't know the way you taste, la-la-la
           Gm7                                                C     N.C.
'Cause you know it's been a long time comin', don't ya let me fall, ooh ooh-ooh-ah-ah

Gm
Ooh, when your lips undress me, hooked on your tongue
G7M  
Ooh, love your kiss is deadly, don't stop


[Chorus 3]
N.C.               Gm
I love it when you call me señorita
                  G7M  
I wish I could pretend I didn't need ya
                   F7M  
But every touch is ooh-la-la-la, it's true la-la-la
 Gm7
Ooh, I should be runnin'
C
Ooh, you know I love it when you

Gm
Call me señorita
                 G7M  
I wish it wasn't so damn hard to leave ya
                   F7M  
But every touch is ooh-la-la-la, it's true la-la-la
 Gm7
Ooh, I should be runnin'
C                           Gm
Ooh, you keep me comin' for ya



                               G7M  
All along I've been comin' for ya (for you)
                                 F7M  
And I hope it meant something to ya (ooh ooh-ooh-ooh)
                                 Gm7                      C                          Gm
Call my name, I'll be comin' for ya,           comin' for ya,           for ya-ah-ah-ah
                                (comin' for ya)          (comin' for ya)

             G7M  
For ya-ah-ah-ah (oh, she loves it when I come)
             F7M  
For ya-ah-ah-ah
 Gm7
Ooh, I should be runnin'
C                           Gm
Ooh, you keep me comin' for ya

Shawn Mendes - Señorita - ноты

(включить)
Другие материалы по этой песне:
  • Аккорды, текст

https://primanota.ru/shawn-mendes/senorita-chords.htm

Привет, гитарист!

Тебе подарок от сайта PrimaNota.ru

Забрать подарок
ВАМ ПОДАРКИ ОТ ПРОЕКТА
"ГИТАРНАЯ РЕВОЛЮЦИЯ"