» 
 » 
Я не отдам тебя никому



Руки вверх - Я не отдам тебя никому - аккорды

Чайковский в рок-аранжировке! Очень необычно, послушай!
Тональность: 
0
Масштаб: 
100%
Прокрутка: 
0
Проще!
Аппликатуры
Нотный режим
Я не отдам тебя никому
Руки вверх
[ Предположительная тональность: Am ]

 Am(V)                               Em(VII)
1||------5-------------------5--------|-------7-----------------7----------||
2||----5---5---------------5---5------|-----8---8--------------8-8---------||
3||--5-------5-----------5-------5----|---9-------9-----------9---9--------||
4--------------------------------------||
5-------------|-7--------------------7-------------||
6||-5------------------5---------------------------------------||
        Ты подойди поближе,                 присядь со мною рядом,

  Dm(V)                               F(V)              G(VII)
1||-------5------------------5--------|-------5---------|-------7----------||
2||-----6---6--------------6---6------|-----6---6-------|-----8---8--------||
3||---7-------7----------7-------7----|---5-------5-----|---7-------7------||
4--------------------------||
5||-5------------------5--------------|-8---------------|-10---------------||
6--------------------------||
          Я не могу тебя так долго    жда-               -ать.

 Am                  Em
  Ты подойди поближе, присядь со мною рядом,
Dm                          F G
  Я не могу тебя так долго ждать.
  Как быстро ночь промчалась, и губ слиянье нежных
  Мне больше никогда не испытать.

  Ты подойди поближе, почувствуй что я рядом,
  Пойми, что никуда я не уйду.
  Позволь мне насладиться твоим влюбленным взглядом,
  Ну где еще такую я найду?..

     Am
    Как мне сегодня хочется
     Dm
    Только с тобою рядом быть,
       G
    Скрасить твое одиночество,
     C             E
    Только тебя одну любить...

    Я прошепчу тебе ласково,
    Нежной рукою обниму,
    Солнышко ты мое ясное,
    Я не отдам тебя никому.

  Ты подойди поближе, поговори со мною,
  Я так хочу услышать голос твой.
  Я так хочу сегодня забыть о всем с тобою,
  В объятьях самой нежной и родной.

  Ты подойди поближе, и будь сама собою,
  Я не могу тебя так долго ждать.
  Как быстро ночь промчалась, а нам еще с тобою,
  Еще о многом нужно помечтать...

Руки вверх - Я не отдам тебя никому - ноты

(включить)
https://primanota.ru/ruki-vverx/ya-ne-otdam-tebya-nikomu.htm