Войти:  Facebook Google Twitter Vk Yandex Mail.ru
PrimaNota.ru - самый крупный в мире бесплатный архив песенных текстов, аккордов, табулатур и нот


Рекорд Оркестр - Воронеж - табы

Печатать
ViraMusic 2019 в Петербурге 4 апреля 2019! Скидка 10%!

Воронеж

  • аккорды, текст

Воронеж
Вступление(куплеты)

|----8-x-8----7-x-7----5-x-5----7-x-7-|
|-------------------------------------|
|----9-x-9----7-x-7----5-x-5----7-x-7-|два раза
|-------------------------------------|
|--0--------0-----------------0-------|
|--------------------0----------------|

|----8-x-8----2-x-2----5-x-5----7-x-7-|
|-------------------------------------|
|-------------2-x-2----5-x-5----7-x-7-|
|----7-x-7-----------3--------0-------|
|--8--------3-------------------------|
|-------------------------------------|

|----8-x-8----5-x-5----5-x-5----4-x-4----4-x-4-|
|----------------------------------------------|
|-------------5-x-5----5-x-5----4-x-4----4-x-4-|
|----7-x-7--3--------3--------2----------------|
|--8-------------------------------------------|
|--------------------------------------0-------|

Am--------------E
Встала в реке вода
Am----------E
Посреди города.
F------------------------D
Ты меня любишь и я тебя "Да",
F------------------E
Только не в этом беда.

Вот уже много лет
Есть припев,а куплета нет.
Ноты сложились в изящный букет,
Но в тональности Le флажолет.

-------Am------Fdim-----G#dim---Am
Mein freund,я понял к чему ты клонишь,
Fdim---G#dim-F
Я разбужу Воронеж,
Dm--------------F----E
Утренний город твой.

Заходи выпить чай,не плачь.
Человек человеку врач.
Новых судьба не напишет задач
В график твоих неудач.

Утром болит голова,
С постели встаёшь едва.
Стали тебе безотрадно горьки
Вчерашние завтраки.

Am---------------E
Стань для меня никем-
----------------Am
Я буду твоим вчерашним днём.
----F-----------------E
Из мягких больничных стен
----------------Am
Нам не уйти вдвоём.
https://primanota.ru/rekord-orkestr/voronezh-chords.htm

Привет, гитарист!

Тебе подарок от сайта PrimaNota.ru

Забрать подарок
ВАМ ПОДАРКИ ОТ ПРОЕКТА
"ГИТАРНАЯ РЕВОЛЮЦИЯ"