Войти:  Facebook Google Twitter Vk Yandex Mail.ru
PrimaNota.ru - самый крупный в мире бесплатный архив песенных текстов, аккордов, табулатур и нот


Pup - Familiar Patterns - бас-таба, видео

Печатать
Просмотров: 87
Лучшая metal-группа Петербурга

Familiar Patterns

  • аккорды и текст

Авторы: Zack Mykula, Steve Sladkowski, Stefan Babcock, Nestor Chumak

[Intro]

F#|2-----------2--------------------------------------------------------------|
C#|--3-2---------3-2----------------------------------------------------------|
G#|------3-----------3-4-5-0-1------------------------------------------------|
C#|--------0------------------------------------------------------------------|

{Repeat x2}
F#|---------------------------------------------------------------------------|
C#|---------------------------------------------------------------------------|
G#|----------------------------5--0--4-5--------------------------------------|
C#|3--3-0-2-3-0--3--3-0-2-3--0------------------------------------------------|

F#|---------------------------------------------------------------------------|
C#|---------------------------------------------------------------------------|
G#|----------------------------4-4-4-4-5-5-5-5-0-0-0-0-1-1-1-1----------------|
C#|3--3-0-2-3-0--3--3-0-2-3--0------------------------------------------------|


[Verse 1]

F#|---------------------------------------------------------------------------|
C#|----2-------2-3-----2---------------2-------2-3-------2--------------------|
G#|------3---------------3---0-1---------3-----------------3------------------|
C#|3-------0-------3-------0-------3-------0---------3------------------------|

F#|---------------------------------------------------------------------------|
C#|---------------------------------------------------------------------------|
G#|4-4-4-4-5-5-5-5-0-0-0-0-1-1-1-1--------------------------------------------|
C#|---------------------------------------------------------------------------|


[Chorus 1]

F#|---------------------------------------------------------------------------|
C#|---------------------------------------------------------------------------|
G#|------------------------------------------5-5-5-5--------------------------|
C#|3-3-3-3/7-7-7-7-7-8-8-8-8-7-7-7-7-5-5-5-5---------3-3-3-3/8-8-8--7---------|

F#|---------------------------------------------------------------------------|
C#|---------------------------------------------------------------------------|
G#|------------------------------------------5-5-5-5--------------------------|
C#|3-3-3-3/7-7-7-7-7-8-8-8-8-7-7-7-7-5-5-5-5---------3-3-3-3/8-8-8--7---------|


[Pre-Verse]

F#|---------------------------------------------------------------------------|
C#|---------------------------------------------------------------------------|
G#|------------5--0--4-5------------------------------------------------------|
C#|3--3--3--3------------3--3-0-2-3-0--3--3-0-2-3--0--------------------------|

F#|---------------------------------------------------------------------------|
C#|---------------------------------------------------------------------------|
G#|4-4-4-4-5-5-5-5-0-0-0-0-1-1-1-1--------------------------------------------|
C#|---------------------------------------------------------------------------|


[Verse 2]

F#|---------------------------------------------------------------------------|
C#|----2-------2-3-------2----------------------------------------------------|
G#|------3-----------------3---4-4-4-4-5-5-5-5-0-0-0-0-1-1-1-1----------------|
C#|3-------0---------3--------------------------------------------------------|

F#|---------------------------------------------------------------------------|
C#|---------------------------------------------------------------------------|
G#|-------------0--1------------0--1---------------0--1-----------------------|
C#|3--3-0-2-3-0-------0--0--0-0-------3--3-0-2-3-0----------------------------|

F#|---------------------------------------------------------------------------|
C#|---------------------------------------------------------------------------|
G#|4-4-4-4-5-5-5-5-0-0-0-0-1-1-1-1--------------------------------------------|
C#|---------------------------------------------------------------------------|


[Chorus 2]

F#|---------------------------------------------------------------------------|
C#|---------------------------------------------------------------------------|
G#|------------------------------------------5-5-5-5--------------------------|
C#|3-3-3-3/7-7-7-7-7-8-8-8-8-7-7-7-7-5-5-5-5---------3-3-3-3/8-8-8--7---------|

F#|---------------------------------------------------------------------------|
C#|---------------------------------------------------------------------------|
G#|----------------------8-------------------5-5-5-5--------------------------|
C#|3-3-3-3/7-7-7-7-7-8-8---8-7-7-7-7-5-5-5-5---------3-3-3-3/8-8-8--7---------|


[Bridge]

F#|---------------------------------------------------------------------------|
C#|---------------------------------------------------------------------------|
G#|---------------------------------------------------------------------------|
C#|3--3-0-2-3-0--3--0-2-3--0---3--0-2-3--0---3--0-2-3--0---3--0-2-3--0--------|

F#|---------------------------------------------------------------------------|
C#|---------------------------------------------------------------------------|
G#|--------------------------2--2-2--3----------------------------------------|
C#|3--3-0-2-3-0--3--0-2-3--0--------------------------------------------------|

F#|---------------------------------------------------------------------------|
C#|---------------------------------------------------------------------------|
G#|----------------2-2-2-2-2-2-2-2-----------------2-2-2-3--------------------|
C#|5-5-5-5-5-5-5-5-----------------3-3-3-3-3-3-3-3----------------------------|

F#|---------------------------------------------------------------------------|
C#|---------------------------------------------------------------------------|
G#|----------------2-2-2-2-2-2-2-2-----------------3-3-3-2--------------------|
C#|5-5-5-5-5-5-5-5-----------------3-3-3-3-3-3-3-3----------------------------|


[Pre-Chorus]

F#|---------------------------------------------------------------------------|
C#|---------------------------------------------------------------------------|
G#|----------5--0--4-5-----------------0-0-0-0-0-0-0-0------------------------|
C#|3--/7-7-------------3-3-3-3-3-3-3-3----------------------------------------|

F#|---------------------------------------------------------------------------|
C#|---------------------------------------------------------------------------|
G#|4-4-4-4-5-5-5-5-0-0-0-0-1-1-1-1--------------------------------------------|
C#|---------------------------------------------------------------------------|


[Chorus 3]

F#|---------------------------------------------------------------------------|
C#|---------------------------------------------------------------------------|
G#|------------------------------------------5-5-5-5--------------------------|
C#|------------------8-8-8-8-7-7-7-7-5-5-5-5---------3-3-3-3/8-8-8--7---------|

F#|---------------------------------------------------------------------------|
C#|---------------------------------------------------------------------------|
G#|------------------8---8---7---7-----------5-5-5-5--------------------------|
C#|3-3-3-3/7-7-7-7-7---8---8---7---7-5-5-5-5---------3-3-3-3/8-8-8--7\--------|


[Outro]

F#|---------------------------------------------------------------------------|
C#|---------------------------------------------------------------------------|
G#|----------------------------5--0--4-5--------------------------------------|
C#|3--3-0-2-3-0--3--3-0-2-3--0------------------------------------------------|

F#|---------------------------------------------------------------------------|
C#|---------------------------------------------------------------------------|
G#|----------------------------4-4-4-4-5-5-5-5-0-0-0-0-1-1-1-1----------------|
C#|3--3-0-2-3-0--3--3-0-2-3--0------------------------------------------------|

F#|---------------------------------------------------------------------------|
C#|---------------------------------------------------------------------------|
G#|----------------------------5--0--4-5--------------------------------------|
C#|------0-3-0--3--3-0-2-3--0-------------------------------------------------|

F#|---------------------------------------------------------------------------|
C#|---------------------------------------------------------------------------|
G#|---------------------------------------------------------------------------|
C#|3--3-0-2-3-0--3--3-0-2-3--3--0---------------------------------------------|

************************************


| /   Slide up
| \   Slide down


************************************
Добавлено: 01.06.2018
Другие материалы по этой песне:
  • Аккорды и текст

Страница создана 01.06.2018
https://primanota.ru/pup/familiar-patterns-chords.htm

Привет, гитарист!

Тебе подарок от сайта PrimaNota.ru

Забрать подарок
ВАМ ПОДАРКИ ОТ ПРОЕКТА
"ГИТАРНАЯ РЕВОЛЮЦИЯ"