» 
 » 
The Last Of Us Part Ii - Longing



Песни из компютерных игр - The Last Of Us Part Ii - Longing - аккорды

Чайковский в рок-аранжировке! Очень необычно, послушай!
Тональность: 
0
Масштаб: 
100%
Прокрутка: 
0
Проще!
Аппликатуры
Нотный режим
The Last Of Us Part Ii - Longing
Песни из компютерных игр
[ Предположительная тональность: D ]

This is my tribute to this amazing game, I love it so much. I hope that you can appreciate the tab!


e|------------------------------------------------------------------------------------------|
B|------------------------------------------------------------------------------------------|
G|--5------------7---1---2-----------4---5------------7---1---2-----------4----5------------|
D|------------------------------------------------------------------------------------------|
A|------------------------------------------------------------------------------------------|
E|-5------------7---0---1-----------3---5------------7---0---1-----------3----5-------------|


e|-------------------------------------------------------|
B|-------------------------------------------------------|
G|--4-----------2----------2-2---1-----------------------|
D|-------------------------------------------------------|
A|-------------------------------------------------------|
E|-3-----------1------------0--0-------------------------|


e|----------------------------------------------------------------------------------------------|
B|----------------------------------------------------------------------------------------------|
G|--4---5------------7---1---2-----------4---5------------7---1---2-----------4----5------------|
D|----------------------------------------------------------------------------------------------|
A|----------------------------------------------------------------------------------------------|
E|-4---5------------7---0---1-----------3---5------------7---0---1-----------4----5-------------|


e|---------------------------------------------------------------------------|
B|---------------------------------------------------------------------------|
G|--4-----------2----------2--2---1-------------2-------2--------------------|
D|-----------------------------------------------------0-----2-----0---------|
A|--------------------------------------------------------------3-----0------|
E|-3-----------1-------------0--0--------------------------------------------|
                                                       *

* This note is really an octave lower, a low G.

Песни из компютерных игр - The Last Of Us Part Ii - Longing - ноты

(включить)
https://primanota.ru/pesni-iz-kompyuternyx-igr/last-of-us-part-ii-longing.htm

Привет, гитарист!

Тебе подарок от сайта PrimaNota.ru

Забрать подарок
ВАМ ПОДАРКИ ОТ ПРОЕКТА
"ГИТАРНАЯ РЕВОЛЮЦИЯ"