» 
 » 
С горки на картонке



Олег Легкий - С горки на картонке - аккорды

Чайковский в рок-аранжировке! Очень необычно, послушай!
Тональность: 
0
Масштаб: 
100%
Прокрутка: 
0
Проще!
Аппликатуры
Нотный режим
С горки на картонке
Олег Легкий
[ Предположительная тональность: D ]

Куплет:
e|------------------ ==
B|-5-5-5-5-5-5-5-5--
G|--4-----4-4-----4-
D|------0-------0---
A|----3-------3-----
E|------------------

------------------
-7-7-7-7-7-7-7-7--
--4-----4-4-----4-
------0-------0---
----3-------3-----
------------------
                                  х2
------------------               /
-2-2-2-2-2-2-2-2--              /
--4-----4-4-----4-             /
------0-------0---            /
----3-------3-----           /
------------------          /
                           /
------------------        /
-0-0-0-0-0-0-0-0--       /
--4-----4-4-----4-      /
------0-------0---     /
----2-------2-----    /
------------------ ==

-0-0-0-0-0-0-0-0--
------------------
--4-----4-4-----4-
------0-------0---
----0-------0-----
------------------

------------------
-2-2-2-2-2-2-2-2--
--4-----4-4-----4-
------0-------0---
----3-------3-----
------------------

------------------
-2-2-2-2-2-2-2-2--
--4-----4-4-----4-
------0-------0---
----3-------3-----
------------------

------------------
-0-0-0-0-0-0-0-0--
--4-----4-4-----4-
------0-------0---
----2-------2-----
------------------

------------------
-0-0-0-0-0-0-0-0--
--4-----4-4-----4-
------0-------0---
----2-------2-----
------------------

Припев:
-3-3--------------
-----0-0-0-0-0-0--
------------------
----------2-------
------3-2---2-3---
--2-0-------------

Bm       E
---------0-0-0-0--     х3
-2-2-2-2----------     /
--4-----4-------4-    /
------4---1---4---   /
----3-------------  /
------------0----- /

-3-3--------------
-----0-0-0--------
------------------
----------3h4-----
------3-2----3----
--2-0-------------

Олег Легкий - С горки на картонке - ноты

(включить)
Другие композиции этого автора:
https://primanota.ru/oleg-legkii/s-gorki-na-kartonke.htm

Привет, гитарист!

Тебе подарок от сайта PrimaNota.ru

Забрать подарок
ВАМ ПОДАРКИ ОТ ПРОЕКТА
"ГИТАРНАЯ РЕВОЛЮЦИЯ"