Войти:  Facebook Google Twitter Vk Yandex Mail.ru
PrimaNota.ru - самый крупный в мире бесплатный архив песенных текстов, аккордов, табулатур и нот


Muse - The Dark Side - табы

Печатать
ViraMusic 2019 в Петербурге 4 апреля 2019! Скидка 10%!

The Dark Side

  • аккорды, текст

e|--------------------------------------------|
B|--------------------------------------------|
G|--11b12-----11h12-11----11------------------|
D|---------------------12----12---------------|
A|------------------------------12-12-10-9~---|
E|--------------------------------------------|


e|--------------------------------------------|
B|--10~-------8-10-8----8---------------------|
G|-------------------11---11-9----------------|
D|-----------------------------10-9-7~--------|
A|--------------------------------------------|
E|--------------------------------------------|


e|--------------------------------------------|
B|--------------------------------------------|
G|--11b-12----9-11-9----9---------------------|
D|-------------------10---10------------------|
A|---------------------------10-10-8-7~-------|
E|--------------------------------------------|


e|--------------------------------------------|
B|--------------------------------------------|
G|--15~-------11-15-11----11------------------|
D|---------------------14----14-11-11-9-8~----|
A|--------------------------------------------|
E|--------------------------------------------|


e|--------------------------------------------|
B|--10~-------8-10-8----8---------------------|
G|-------------------11---11-9----------------|
D|-----------------------------10-9-7---------|
A|------------------------------------7~------|
E|--------------------------------------------|


e|------------------------------------------------|
B|------------------------------------------------|
G|--17~-------12-16-12----12----------------------|
D|---------------------16----16-14----------------|
A|------------------------------------------------|
E|---------------------------------15-14-12-8/~---|


************************************

| b   Bend
| /   Slide up
| ~   Vibrato

************************************

[Verse 1]
I have lived in darkness
For all my life, I've been pursued
You'd be afraid if you could feel my pain
And if you could see the things I Am able to see

[Chorus]
Break me out, break me out
Let me flee
Break me out, break me out
Set me free

[Verse 2]
I hail from the dark side
For all my life, I've been besieged
You'd be scared living with my despair
And if you could feel the things, I Am able to feel

[Chorus]
Break me out, break me out
Let me flee
Break me out, break me out
Set me free


Break me out, break me out
Let me flee
Break me out, break me out
Set me free
Save me from the dark side
Break me out, break me out
Set me free
Другие материалы по этой песне:
  • Аккорды, текст

https://primanota.ru/muse/dark-side-chords.htm

Привет, гитарист!

Тебе подарок от сайта PrimaNota.ru

Забрать подарок
ВАМ ПОДАРКИ ОТ ПРОЕКТА
"ГИТАРНАЯ РЕВОЛЮЦИЯ"