Войти:  Facebook Google Twitter Vk Yandex Mail.ru
PrimaNota.ru - самый крупный в мире бесплатный архив песенных текстов, аккордов, табулатур и нот


Misc Soundtrack - Crazy Ex-Girlfriend - Sexy Getting Ready Song - таба, видео

Печатать
Просмотров: 80
Лучшая metal-группа Петербурга

Crazy Ex-Girlfriend - Sexy Getting Ready Song

  • аккорды и текст

From the show Crazy Ex-Girlfriend.
Performed by Rachel Bloom.
Tabbed by The Lotus Revolution.

SEXY GETTING READY SONG

[Intro/Chorus/Outro]

       G#m                                  D#                     G#m
e|--------------------------6-h-4-------------------6-------------------6--4------|
B|--------------4--------4-(4)-(4)-4------------8-----------------------------6---|
G|-----------4-------------------------------8----------------------4-------------|
D|--------6-------------------------------8----------------------6----------------|
A|-----6-------------------------------6----------------------6-------------------|
E|--4----------------------------------------------------4------------------------|

       Esus2                                       D#             G#m
e|---------------------------------7---------------------6------------------------|
B|-------------7---------7------------------------------(8)-------12--------------|
G|----------9---------9--------9---------9------------8-----------13--------------|
D|-------9---------9--------9---------9------------8--------------13--------------|
A|--7-------------------------------------------6-----------------11--------------|
E|--------------------------------------------------------------------------------|


[Verse]

       G#m                                 B
e|--------------------------------------------------------------------------------|
B|------------------4--------------------------------7----------------------------|
G|---------------4-----4--------------------------8-----8-------------------------|
D|------------6-----------6--------------------9-----------9----------------------|   x2
A|---------6--------------------------------9-------------------------------------|
E|--4--------------------------------7--------------------------------------------|

       G#m                                 D#
e|----------------------------------------------------6---------------------------|
B|------------------4------------------------------8-----8------------------------|
G|---------------4-----4------------------------8-----------8---------------------|
D|------------6-----------6------------------8------------------------------------|   
A|---------6-------------------------6--------------------------------------------|
E|--4-----------------------------------------------------------------------------|

        Esus2                              D#                      G#m
e|----------------------------------------------------6---------------------------|
B|--7--------------7>------------------------------8----8----------12-------------|
G|--9----------9>------9------------------------8----------8-------13-------------|
D|--9------9>-------------9------------------8---------------------13-------------|
A|--7--------------------------------6-----------------------------11-------------|
E|--------------------------------------------------------------------------------|


************************************

| x   Dead note
| g   Grace note
|(n)  Ghost note
| h   Hammer-on
| p   Pull-off
| r   Release
| >   Accented note
| t   Tapping
| b   Bend
| br  Bend release
| pb  Pre-bend
| pbr Pre-bend release
| /   Slide up
| \   Slide down
| ~   Vibrato
| s   Slap
| P   Pop
| PM  Palm mute
| TR  Trill
| N   Tremolo

************************************
Добавлено: 26.04.2018
Другие материалы по этой песне:
  • Аккорды и текст

Страница создана 26.04.2018
https://primanota.ru/misc-soundtrack/crazy-ex-girlfriend-sexy-getting-ready-song-chords.htm

Привет, гитарист!

Тебе подарок от сайта PrimaNota.ru

Забрать подарок
ВАМ ПОДАРКИ ОТ ПРОЕКТА
"ГИТАРНАЯ РЕВОЛЮЦИЯ"