Войти:  Facebook Google Twitter Vk Yandex Mail.ru
PrimaNota.ru - самый крупный в мире бесплатный архив песенных текстов, аккордов, табулатур и нот


Misc Soundtrack - Critical Mass - Fatal - таба, видео

Печатать
Просмотров: 114
Лучшая metal-группа Петербурга

Critical Mass - Fatal

  • аккорды и текст

Critical Mass - Fatal
Tabbed by Jgbuddy298
Drop D Tuning


[Intro] (Repeat 4 times)

e|---------------------------------------------------------------------------|
B|---------------------------------------------------------------------------|
G|---------------------------------------------------------------------------|
D|---------------------------------------------------------------------------|
A|---------------------------------------------------------------------------|
D|--6--6--8--6--6--10--6--6--8------2--2--4--2--2--6--2--2--4----------------|


[Verse] (Repeat 4 times)

e|---------------------------------------------------------------------------|
B|---------------------------------------------------------------------------|
G|---------------------------------------------------------------------------|
D|--4--4--4--4--4--4--4--4--4--4--4--4--4--4--4--4---------------------------|
A|--4--4--4--4--4--4--4--4--4--4--4--4--4--4--4--4---------------------------|
D|--4--4--4--4--4--4--4--4--4--4--4--4--4--4--4--4---------------------------|

e|---------------------------------------------------------------------------|
B|---------------------------------------------------------------------------|
G|---------------------------------------------------------------------------|
D|--2--2--2--2--2--2--2--2--6--6--6--6--5--5--5--5---------------------------|
A|--2--2--2--2--2--2--2--2--6--6--6--6--5--5--5--5---------------------------|
D|--2--2--2--2--2--2--2--2--6--6--6--6--5--5--5--5---------------------------|


[Chorus] (Repeat 2 times) (Strum pattern change) (Palm Muted)

e|---------------------------------------------------------------------------|
B|---------------------------------------------------------------------------|
G|---------------------------------------------------------------------------|
D|--4--4--4--4--4--4--4--4--4--4--4--4--4--4--4--4---------------------------|
A|--4--4--4--4--4--4--4--4--4--4--4--4--4--4--4--4---------------------------|
D|--4--4--4--4--4--4--4--4--4--4--4--4--4--4--4--4---------------------------|

e|---------------------------------------------------------------------------|
B|---------------------------------------------------------------------------|
G|---------------------------------------------------------------------------|
D|--4--2--2--2--2--2--2--2--2--2--2--6--6--6--6--6---------------------------|
A|--4--2--2--2--2--2--2--2--2--2--2--6--6--6--6--6---------------------------|
D|--4--2--2--2--2--2--2--2--2--2--2--6--6--6--6--6---------------------------|

e|---------------------------------------------------------------------------|
B|---------------------------------------------------------------------------|
G|---------------------------------------------------------------------------|
D|--6--4--4--4--4--4--4--4--4--4--4--4--4--4--4--4---------------------------|
A|--6--4--4--4--4--4--4--4--4--4--4--4--4--4--4--4---------------------------|
D|--6--4--4--4--4--4--4--4--4--4--4--4--4--4--4--4---------------------------|

e|---------------------------------------------------------------------------|
B|---------------------------------------------------------------------------|
G|---------------------------------------------------------------------------|
D|--4--2--2--2--2--2--2--2--2--2--6--6--6--6--5--5--5--5---------------------|
A|--4--2--2--2--2--2--2--2--2--2--6--6--6--6--5--5--5--5---------------------|
D|--4--2--2--2--2--2--2--2--2--2--6--6--6--6--5--5--5--5---------------------|


[Outro] (Repeat 4 times)

e|---------------------------------------------------------------------------|
B|---------------------------------------------------------------------------|
G|---------------------------------------------------------------------------|
D|--6--6--8--6--6--10--6--6--8-----------------------------------------------|
A|--6--6--8--6--6--10--6--6--8-----------------------------------------------|
D|--6--6--8--6--6--10--6--6--8-----------------------------------------------|

e|---------------------------------------------------------------------------|
B|---------------------------------------------------------------------------|
G|---------------------------------------------------------------------------|
D|--2--2--4--2--2--6--2--2--4------------------------------------------------|
A|--2--2--4--2--2--6--2--2--4------------------------------------------------|
D|--2--2--4--2--2--6--2--2--4------------------------------------------------|
Добавлено: 26.04.2018
Другие материалы по этой песне:
  • Аккорды и текст

Страница создана 26.04.2018
https://primanota.ru/misc-soundtrack/critical-mass-fatal-chords.htm

Привет, гитарист!

Тебе подарок от сайта PrimaNota.ru

Забрать подарок
ВАМ ПОДАРКИ ОТ ПРОЕКТА
"ГИТАРНАЯ РЕВОЛЮЦИЯ"