» 
 » 
Вансы (табы)



МИМО ВСЕЛЕННОЙ - Вансы (табы) - аккорды

Чайковский в рок-аранжировке! Очень необычно, послушай!
Тональность: 
0
Масштаб: 
100%
Прокрутка: 
0
Проще!
Аппликатуры
Нотный режим
Вансы (табы)
МИМО ВСЕЛЕННОЙ
[ Предположительная тональность: C ]

[Куплет]

                                                         Я надену вансы в цвет твоих волос
6--------------------------------------------------------------
5--------------------------------------------------------------
4-------5-----5------------5-----------5-----5-----------5-----
3--------------------------------------------------------------
2----------3------------3-----3-----------3-----------3-----3--
1----------------5------------------------------5--------------

                                                      Чтобы быть к тебе ближе немного
6--------------------------------------------------------------
5--------------------------------------------------------------
4-------0-----0------------0-----------0-----0-----------0-----
3--------------------------------------------------------------
2----------3------------3-----3-----------3-----------3-----3--
1----------------5------------------------------5--------------

                                                     Между нами есть только один вопрос
6--------------------------------------------------------------
5--------------------------------------------------------------
4-------2-----2------------2-----------2-----2-----------2-----
3--------------------------------------------------------------
2----------3------------3-----3-----------3-----------3-----3--
1-----------------3-----------------------------3--------------

                                                          Как искали друг друга так долго
6-------------------------------------------------------
5-------5-----5-----------5----------------------5------
4-------------------------------------------------------
3----------0---------0--------0-------0------0----------
2-----------------0---------------------------------2---
1-------------------------------------------------------

                                                           И я буду тебя крепко обнимать
6--------------------------------------------------------------
5--------------------------------------------------------------
4-------5-----5------------5-----------5-----5-----------5-----
3--------------------------------------------------------------
2----------3------------3-----3-----------3-----------3-----3--
1----------------5------------------------------5--------------

                                                 Чтобы чувствовать как сердце бьётся
6--------------------------------------------------------------
5--------------------------------------------------------------
4-------0-----0------------0-----------0-----0-----------0-----
3--------------------------------------------------------------
2----------3------------3-----3-----------3-----------3-----3--
1----------------5------------------------------5--------------

                                            Не хочу даже на миг отпускать
                                                                                      Gm
6----------------------------------------------0----------------
5----0--------------------0-------------------------------------
4-------2----------2---------2----------2---------2----------2--
3----------0-----0--------------0-----0--------------0-----0----
2-------------0--------------------0--------------------0-------
1---------------------------------------------------------------

        Но придется.
                  C
6-----------------------------------
5-----------------------------------
4--------0--------------------------
3-----------2---------------2-------
2-------------3----------3----------
1----------------2-p-3--------------


[Припев]

           И когда на прощание
        G
6------------------------------------------------------------------
5----3-----3--------------3-----------3-----3--------------3-------
4------------------------------------------------------------------
3-------0--------------0-----0-----------0--------------0-----0----
2-------------3p0-------------------------------3p0----------------
1------------------------------------------------------------------

              я тебя обнимаю           в ту же секунду уже скучаю
        C                                                                  C
6-----3-----3--------------3----------------------------------------
5-------------------------------------------------------------------
4--------------------------------------------0----------------------
3--------0--------------0-----0-----------------2--------------2----
2---------------3p0--------------------------------3--------3-------
1----------------------------------------------------2-p-3----------

        G
6------------------------------------------------------------------
5----3-----3--------------3-----------3-----3--------------3-------
4------------------------------------------------------------------
3-------0--------------0-----0-----------0--------------0-----0----
2-------------3p0-------------------------------3p0----------------
1------------------------------------------------------------------

 Я как от сердца тебя отрываю
        C                                                                     C
6-----3-----3--------------3----------------------------------------
5-------------------------------------------------------------------
4--------------------------------------------0----------------------
3--------0--------------0-----0-----------------2--------------2----
2---------------3p0--------------------------------3--------3-------
1----------------------------------------------------2-p-3----------

           Все мои ожидания
        G
6------------------------------------------------------------------
5----3-----3--------------3-----------3-----3--------------3-------
4------------------------------------------------------------------
3-------0--------------0-----0-----------0--------------0-----0----
2-------------3p0-------------------------------3p0----------------
1------------------------------------------------------------------

      Гораздо меньше чем ты
        C                                                                      C
6-----3-----3--------------3----------------------------------------
5-------------------------------------------------------------------
4--------------------------------------------0----------------------
3--------0--------------0-----0-----------------2--------------2----
2---------------3p0--------------------------------3--------3-------
1----------------------------------------------------2-p-3----------

  Как я тебя понимаю
                                                      Gm
6----------------------------0----------------
5--------0-------------------------------------
4----------2----------2---------2----------2--
3-------------0-----0--------------0-----0----
2----------------0--------------------0-------
1---------------------------------------------
   Я как будто всю жизнь тебя знаю
        C                                                    C
6----3-------------------------------------------------------------
5------------------------------------------------------------------
4-------0---------0----------------0-------------------------------
3---------0-----0---------------------2----------------2-----------
2------------0----------------------------3---------3--------------
1--------------------------------------------2-p-3-----------------


проигрыш G G C C

Все остальное играется так же

МИМО ВСЕЛЕННОЙ - Вансы (табы) - ноты

(включить)
Другие композиции этого автора:
https://primanota.ru/mimo-vselennoi/vansy-taby.htm

Привет, гитарист!

Тебе подарок от сайта PrimaNota.ru

Забрать подарок
ВАМ ПОДАРКИ ОТ ПРОЕКТА
"ГИТАРНАЯ РЕВОЛЮЦИЯ"