Войти:  Facebook Google Twitter Vk Yandex Mail.ru
PrimaNota.ru - самый крупный в мире бесплатный архив песенных текстов, аккордов, табулатур и нот


Milky Chance - Where Is My Mind - табы

Печатать
Лучшая metal-группа Петербурга

Where Is My Mind

  • аккорды, текст

D tuning

(The intro is the same as the original one:)

E C#m G# A

(This pattern is repeated trough the whole song) 
(they do add some variations but I couldn't figure them out)
d|--x-x----4-4-4----x-x-x---x---x-x-x---|
A|--9-9----5-5-5----4-4-4---5---7-5-7---|
F|--9-9----6-6-6----5-5-5---6---8-6-8---|
C|--9-9----6-6-6----6-6-6---7---9-7-9---|
G|--x-x----x-x-x----6-6-6---7---9-7-9---|
D|--x-x----x-x-x----x-x-x---x---x-x-x---|

[Solo]
d|---------------------------------------------------------------------------|
A|---------------------------9----9---9---------9-------9--------------------|
F|----------------9-9----9--11--11pb-11b--11b--11b-------11-----14-13--------|
C|----------------9-9-11-9--------------------------11------11---------------|
G|--------(7)-7--------------------------------------------------------------|
D|--x--7h9------9------------------------------------------------------------|

d|---------------------------------------------------------------------------|
A|------------------9----9----9------9--------------------12----12--14--14b--|
F|--7/9------9-11--11b--11b--11b-------11----14--13----------13--------------|
C|--9/11--11----------------------11------11---------9/11--------------------|
G|---------------------------------------------------------------------------|
D|---------------------------------------------------------------------------|

d|---------------------------------------------------------------------------|
A|-----12-----------12--------------------12-------------------12------------|
F|--13----13--11/13----13-----------11/13----13----------11/13----13---------|
C|------------------------14-13-11--------------14-13-11-------------14-13-11|
G|---------------------------------------------------------------------------|
D|---------------------------------------------------------------------------|

d|---------------------------------------------------------------------------|
A|--------12--12--12--12-12-12-12-12-13-13-14-14-14-14-17-17-17-17-17--------|
F|--11/13---13--13--13---13-13-13-13-13-13-13-13-13-13-16-16-16-16-16--------|
C|---------------------------------------------------------------------------|
G|---------------------------------------------------------------------------|
D|---------------------------------------------------------------------------|


************************************

| x    Dead note
| b    Bend
| pb   Pre-bend
| (n)  Ghost note
| h    Hammer-on
| /    Slide up

************************************   
https://primanota.ru/milky-chance/where-is-my-mind-chords.htm

Привет, гитарист!

Тебе подарок от сайта PrimaNota.ru

Забрать подарок
ВАМ ПОДАРКИ ОТ ПРОЕКТА
"ГИТАРНАЯ РЕВОЛЮЦИЯ"