» 
 » 
Перекати поле



Кино - Перекати поле - аккорды

Бесплатный вокальный онлайн-квест VOX7
Тональность: 
0
Масштаб: 
100%
Прокрутка: 
0
Проще!
Аппликатуры
Нотный режим
Перекати поле
Кино
[ Предположительная тональность: D ]

E||--------------------------|
B||--------------------------|
G||--------------------------|
D||--------------------------|
A||--7--7--5--5--4--4--2-----|
E||-----------------------0--|

--------------------------|--------------------------|
--------------------------|--------------------------|
--------------------------|--------------------------|
--------------------------|--------------------------|
--------5--5--4--4--2-----|--7--7--5--5--4--4--2-----|
--0--0-----------------0--|-----------------------0--|

--------------------------|--------------------------|
--------------------------|--------------------------|
--------------------------|--------------------------|
--------------------------|--------------------------|
--------5--5--4--4--2-----|--7--7--5--5--4--4--2-----|
--0--0-----------------0--|-----------------------0--|

--------------------------|--------------------------|
--------------------------|--------------------------|
--------------------------|--------------------------|
--------------------------|--------------------------|
--------5--5--4--4--2-----|--7--7--5--5--4--4--2-----|
--0--0-----------------0--|-----------------------0--|

--------------------------|--------------------------|
--------------------------|--------------------------|
--------------------------|--------------------------|
--------------------------|--------------------------|
--------5--5--4--4--2-----|--7--7--5--5--4--4--2-----|
--0--0-----------------0--|-----------------------0--|

--------------------------|--------------------------|
--------------------------|--------------------------|
--------------------------|--------------------------|
--------------------------|--------------------------|
--------5--5--4--4--2-----|--7--7--5--5--4--4--2-----|
--0--0-----------------0--|-----------------------0--|

--------------------------|--------------------------|
--------------------------|--------------------------|
--------------------------|--------------------------|
--------------------------|--------------------------|
--------5--5--4--4--2-----|--7--7--5--5--4--4--2-----|
--0--0-----------------0--|-----------------------0--|

--------------------------|--------------------------|
--------------------------|--------------------------|
--------------------------|--------------------------|
--------------------------|--------------------------|
--------5--5--4--4--2-----|--7--7--5--5--4--4--2-----|
--0--0-----------------0--|-----------------------0--|

--------------------------|----------------------|----------------------|
--------------------------|----------------------|----------------------|
--------------------------|----------0-----------|----------0-----------|
--------------------------|-----2----------------|-----4----------------|
--------5--5--4--4--2-----|--3-------------------|--5-------------------|
--0--0-----------------0--|----------------------|----------------------|

--------------------------|--------------------------|----------------------|
--------------------------|--------------------------|----------------------|
--------------------------|--------------------------|----------0-----------|
--------------------------|--------------------------|-----2----------------|
--7--7--5--5--4--4--2-----|--------5--5--4--4--2-----|--3-------------------|
-----------------------0--|--0--0-----------------0--|----------------------|

----------------------|--------------------------|--------------------------|
----------------------|--------------------------|--------------------------|
----------0-----------|--------------------------|--------------------------|
-----4----------------|--------------------------|--------------------------|
--5-------------------|--7--7--5--5--4--4--2-----|--------5--5--4--4--2-----|
----------------------|-----------------------0--|--0--0-----------------0--|

--------------------------|--------------------------|
--------------------------|--------------------------|
--------------------------|--------------------------|
--------------------------|--------------------------|
--7--7--5--5--4--4--2-----|--------5--5--4--4--2-----|
-----------------------0--|--0--0-----------------0--|

--------------------------|--------------------------|
--------------------------|--------------------------|
--------------------------|--------------------------|
--------------------------|--------------------------|
--7--7--5--5--4--4--2-----|--------5--5--4--4--2-----|
-----------------------0--|--0--0-----------------0--|

--------------------------|--------------------------|
--------------------------|--------------------------|
--------------------------|--------------------------|
--------------------------|--------------------------|
--7--7--5--5--4--4--2-----|--------5--5--4--4--2-----|
-----------------------0--|--0--0-----------------0--|

--------------------------|--------------------------|
--------------------------|--------------------------|
--------------------------|--------------------------|
--------------------------|--------------------------|
--7--7--5--5--4--4--2-----|--------5--5--4--4--2-----|
-----------------------0--|--0--0-----------------0--|

--------------------------|--------------------------|
--------------------------|--------------------------|
--------------------------|--------------------------|
--------------------------|--------------------------|
--7--7--5--5--4--4--2-----|--------5--5--4--4--2-----|
-----------------------0--|--0--0-----------------0--|

--------------------------|--------------------------|
--------------------------|--------------------------|
--------------------------|--------------------------|
--------------------------|--------------------------|
--7--7--5--5--4--4--2-----|--------5--5--4--4--2-----|
-----------------------0--|--0--0-----------------0--|

--------------------------|--------------------------|----------------------|
--------------------------|--------------------------|----------------------|
--------------------------|--------------------------|----------0-----------|
--------------------------|--------------------------|-----2----------------|
--7--7--5--5--4--4--2-----|--------5--5--4--4--2-----|--3-------------------|
-----------------------0--|--0--0-----------------0--|----------------------|

----------------------|--------------------------|--------------------------|
----------------------|--------------------------|--------------------------|
----------0-----------|--------------------------|--------------------------|
-----4----------------|--------------------------|--------------------------|
--5-------------------|--7--7--5--5--4--4--2-----|--------5--5--4--4--2-----|
----------------------|-----------------------0--|--0--0-----------------0--|

----------------------|----------------------|--------------------------|
----------------------|----------------------|--------------------------|
----------0-----------|----------0-----------|--------------------------|
-----2----------------|-----4----------------|--------------------------|
--3-------------------|--5-------------------|--7--7--5--5--4--4--2-----|
----------------------|----------------------|-----------------------0--|

--------------------------|--------------------------|
--------------------------|--------------------------|
--------------------------|--------------------------|
--------------------------|--------------------------|
--------5--5--4--4--2-----|--7--7--5--5--4--4--2-----|
--0--0-----------------0--|-----------------------0--|

--------------------------|--------------------------|
--------------------------|--------------------------|
--------------------------|--------------------------|
--------------------------|--------------------------|
--------5--5--4--4--2-----|--7--7--5--5--4--4--2-----|
--0--0-----------------0--|-----------------------0--|

--------------------------|--------------------------|
--------------------------|--------------------------|
--------------------------|--------------------------|
--------------------------|--------------------------|
--------5--5--4--4--2-----|--7--7--5--5--4--4--2-----|
--0--0-----------------0--|-----------------------0--|

--------------------------|--------------------------|
--------------------------|--------------------------|
--------------------------|--------------------------|
--------------------------|--------------------------|
--------5--5--4--4--2-----|--7--7--5--5--4--4--2-----|
--0--0-----------------0--|-----------------------0--|

--------------------------|--------------------------|
--------------------------|--------------------------|
--------------------------|--------------------------|
--------------------------|--------------------------|
--------5--5--4--4--2-----|--7--7--5--5--4--4--2-----|
--0--0-----------------0--|-----------------------0--|

--------------------------|--------------------------|
--------------------------|--------------------------|
--------------------------|--------------------------|
--------------------------|--------------------------|
--------5--5--4--4--2-----|--7--7--5--5--4--4--2-----|
--0--0-----------------0--|-----------------------0--|

--------------------------|--------------------------|
--------------------------|--------------------------|
--------------------------|--------------------------|
--------------------------|--------------------------|
--------5--5--4--4--2-----|--7--7--5--5--4--4--2-----|
--0--0-----------------0--|-----------------------0--|

--------------------------|----------------------|----------------------|
--------------------------|----------------------|----------------------|
--------------------------|----------0-----------|----------0-----------|
--------------------------|-----2----------------|-----4----------------|
--------5--5--4--4--2-----|--3-------------------|--5-------------------|
--0--0-----------------0--|----------------------|----------------------|

--------------------------|--------------------------|----------------------|
--------------------------|--------------------------|----------------------|
--------------------------|--------------------------|----------0-----------|
--------------------------|--------------------------|-----2----------------|
--7--7--5--5--4--4--2-----|--------5--5--4--4--2-----|--3-------------------|
-----------------------0--|--0--0-----------------0--|----------------------|

----------------------|--------------------------|--------------------------|
----------------------|--------------------------|--------------------------|
----------0-----------|--------------------------|--------------------------|
-----4----------------|--------------------------|--------------------------|
--5-------------------|--7--7--5--5--4--4--2-----|--------5--5--4--4--2-----|
----------------------|-----------------------0--|--0--0-----------------0--|

--------------------------|--------------------------|
--------------------------|--------------------------|
--------------------------|--------------------------|
--------------------------|--------------------------|
--7--7--5--5--4--4--2-----|--------5--5--4--4--2-----|
-----------------------0--|--0--0-----------------0--|

--------------------------|--------------------------|
--------------------------|--------------------------|
--------------------------|--------------------------|
--------------------------|--------------------------|
--7--7--5--5--4--4--2-----|--------5--5--4--4--2-----|
-----------------------0--|--0--0-----------------0--|

--------------------------|--------------------------|
--------------------------|--------------------------|
--------------------------|--------------------------|
--------------------------|--------------------------|
--7--7--5--5--4--4--2-----|--------5--5--4--4--2-----|
-----------------------0--|--0--0-----------------0--|

--------------------------|--------------------------|
--------------------------|--------------------------|
--------------------------|--------------------------|
--------------------------|--------------------------|
--7--7--5--5--4--4--2-----|--------5--5--4--4--2-----|
-----------------------0--|--0--0-----------------0--|

--------------------------|--------------------------|
--------------------------|--------------------------|
--------------------------|--------------------------|
--------------------------|--------------------------|
--7--7--5--5--4--4--2-----|--------5--5--4--4--2-----|
-----------------------0--|--0--0-----------------0--|

--------------------------|--------------------------|
--------------------------|--------------------------|
--------------------------|--------------------------|
--------------------------|--------------------------|
--7--7--5--5--4--4--2-----|--------5--5--4--4--2-----|
-----------------------0--|--0--0-----------------0--|

--------------------------|--------------------------|----------------------|
--------------------------|--------------------------|----------------------|
--------------------------|--------------------------|----------0-----------|
--------------------------|--------------------------|-----2----------------|
--7--7--5--5--4--4--2-----|--------5--5--4--4--2-----|--3-------------------|
-----------------------0--|--0--0-----------------0--|----------------------|

----------------------|--------------------------|--------------------------|
----------------------|--------------------------|--------------------------|
----------0-----------|--------------------------|--------------------------|
-----4----------------|--------------------------|--------------------------|
--5-------------------|--7--7--5--5--4--4--2-----|--------5--5--4--4--2-----|
----------------------|-----------------------0--|--0--0-----------------0--|

----------------------|----------------------|--------------------------|
----------------------|----------------------|--------------------------|
----------0-----------|----------0-----------|--------------------------|
-----2----------------|-----4----------------|--------------------------|
--3-------------------|--5-------------------|--7--7--5--5--4--4--2-----|
----------------------|----------------------|-----------------------0--|

--------------------------|--------------------------|
--------------------------|--------------------------|
--------------------------|--------------------------|
--------------------------|--------------------------|
--------5--5--4--4--2-----|--7--7--5--5--4--4--2-----|
--0--0-----------------0--|-----------------------0--|

--------------------------|--------------------------|
--------------------------|--------------------------|
--------------------------|--------------------------|
--------------------------|--------------------------|
--------5--5--4--4--2-----|--7--7--5--5--4--4--2-----|
--0--0-----------------0--|-----------------------0--|

--------------------------|--------------------------|
--------------------------|--------------------------|
--------------------------|--------------------------|
--------------------------|--------------------------|
--------5--5--4--4--2-----|--7--7--5--5--4--4--2-----|
--0--0-----------------0--|-----------------------0--|

--------------------------|--------------------------|
--------------------------|--------------------------|
--------------------------|--------------------------|
--------------------------|--------------------------|
--------5--5--4--4--2-----|--7--7--5--5--4--4--2-----|
--0--0-----------------0--|-----------------------0--|

--------------------------||
--------------------------||
--------------------------||
--------------------------||
--------5--5--4--4--2-----||
--0--0-----------------0--||

Кино - Перекати поле - ноты

(включить)
Другие композиции этого автора:
Другие материалы по этой песне:
  • Аккорды, текст

https://primanota.ru/kino-2/perekati-pole-2-chords.htm

Привет, гитарист!

Тебе подарок от сайта PrimaNota.ru

Забрать подарок
ВАМ ПОДАРКИ ОТ ПРОЕКТА
"ГИТАРНАЯ РЕВОЛЮЦИЯ"