# 0 1 2 3 4 5 6 7 8 9 A B C D E F G H I J K L M N O P Q R S T U V W X Y Z
А Б В Г Д Е Ж З И І Й К Л М Н О П Р С Т У Ф Х Ц Ч Ш Щ Ы Э Ю Я
Войти:  Facebook Google Twitter Vk Yandex Mail.ru



Ghost - Prime Mover - табы

 » 
 » 
Prime Mover
Нотный режим - новая уникальная возможность на нашем сайте!
  • аккорды, текст
  • gtp-табы
Prime Mover

Standard Tuning, but tuned down one whole step

|: = repeat sign
:| = repeat sign
^ = hammer-on/pull-off
/ = slide up
\ = slide down
() = harmonics
x = string mute
^b = bend
qr = Quick Rest
T = tapping

pm
== = Palm Mute



INTRO, GUITAR ONE     INTRO, GUITAR TWO
d||---7-7-7-7--||   ||--------------------------------------||------------------------------
A||:--x-x-x-x-:||   ||:------------------------------------:||------------------------------
F||---4-4-4-4--||   ||--------------------------------------||------------------------------
C||------------||   ||--------------------------------------||--8-8-8----2--REST-----2-REST-
G||:----------:||   ||:------------------------------------:||--8-8-8----2-----------2------
D||------------||   ||----7-8\4---1/5-4----7-8\4----1/8-7---||--6-6-6-0--0-----------0------


INTRO, BOTH GUITARS
d|--------------------------------------------------------------------
A|--------------------------------------------------------------------
F|--------------------------------------------------------------------
C|----2-2-2----2-2-2----2-2-2-----------2-2-2----2-2-2----2-2-2-------
G|----2-2-2----2-2-2----2-2-2-----------2-2-2----2-2-2----2-2-2-------
D|----0-0-0----0-0-0----0-0-0---REST----0-0-0----0-0-0----0-0-0--REST-



INTRO, GUITAR ONE
d||------------------------------------------||---------------------------------------
A||:----------------------------------------:||---------------------------------------
F||----------8--------8-------8-----8---8----||-------8--------8-------8-----8---9\---
C||----------x--------x-------x-----x---x----||-------x--------x-------x-----x---x----
G||:---------6--------6-------6-----6---6---:||-------6--------6-------6-----6---7\---
D||---0-0-0----0-0-0----0-0-0---0-0----------||0-0-0----0-0-0----0-0-0---0-0----------



INTRO, GUITAR TWO
d||--------------------------------------------||---------------------
A||:---8-8-8-8-8-8-8-8-8-8-8-8-8-8-8-8-8-8-8--:||---------------------
F||----x-x-x-x-x-x-x-x-x-x-x-x-x-x-x-x-x-x-x---||------9--------------
C||----5-5-5-5-5-5-5-5-5-5-5-5-5-5-5-5-5-5-5---||------x--------------
G||:------------------------------------------:||------7--------------
D||--------------------------------------------||---------------------



VERSE, PLAY TWICE
d||--------------------------------------------------------------------------
A||:-------------------------------------------------------------------------
F||--------------------------------------------------------------------------
C||---pm----------------------------------------------=============--=======-
G||:--=============--=======--=============--=======--3-3-3-3-3-3-3--3-3-3-3-
D||---6-6-6-6-6-6-6--6-6-6-6--2-2-2-2-2-2-2--2-2-2-2-------------------------



VERSE
d|------------------------------------------------------------------------
A|------------------------------------------------------------------------
F|------------------------------------------------------------------------
C|-pm----------------------------------------------=============--=======-
G|-=============--=======--=============--=======--5-5-5-5-5-5-5--5-5-5-5-
D|-0-0-0-0-0-0-0--0-0-0-0--2-2-2-2-2-2-2--2-2-2-2-------------------------



VERSE
d|--------------------------------------||
A|-------------------------------------:||
F|--------------------------------------||
C|-pm-----------------------------------||
G|-=====----=====----=====-=====-------:||
D|-6-6-6-7--6-6-6-7--6-6-6-7-6-5-7-7----||



CHORUS, GUITAR ONE
d|--------------------------------------------------------------------
A|--------------------------------------------------------------------
F|--------------------------------------------------------------------
C|--------3-----------5----------3----------5-------------------------
G|--------1-----------3----------1----------3-------------------------
D|--0------------0----------0----------0---------2---1----------------



CHORUS, GUITAR TWO
d|--------------------------------------------------------------------
A|--------------------------------------------------------------------
F|--------------------------------------------------------------------
C|-----5-4--------5-4---5------5-4----4---3---------------------------
G|---------7----------7------------7----------------------------------
D|---0---------0------------0-----------------------------------------



BOTH GUITARS
d|--------------------------------------------------------------------
A|--------------------------------------------------------------------
F|--------------------------------------------------------------------
C|--------------------------------------------------------------------
G|----2-2-2-------2-2-2--------2-2-2----qr----------------------------
D|----0-0-0-------0-0-0--------0-0-0----------------------------------



BRIDGE, GUITAR ONE
d||------------------------------------------------------------------------||
A||:--pm------------------------------------------------------------------:||
F||---==============================================================-13----||
C||---12-11-10-12-11-10-12-11-10-12-11-10-12-11-10-12-11-10-12-11-10-------||
G||:----------------------------------------------------------------------:||
D||------------------------------------------------------------------------||



BRIDGE, GUITAR TWO
d||------------------------------------||
A||:----------------------------------:||
F||------------------------------------||
C||------------------------------------||
G||:--------4------4------4-----4-4---:||
D||----3--3----3-3----3-3---3-0--------||



GUITAR ONE           GUITAR TWO
d||---7-7-7-7--||   ||--------------------------------------||
A||:--x-x-x-x-:||   ||:------------------------------------:||
F||---4-4-4-4--||   ||--------------------------------------||
C||------------||   ||--------------------------------------||
G||:----------:||   ||:------------------------------------:||
D||------------||   ||----7-8\4---1/5-4----7-8\4----1/8-7---||



BOTH GUITARS
d|----------------------------------------------------------------------
A|----------------------------------------------------------------------
F|---------------------------------------------------------===========--
C|-------------------------------------------pm----=====---5-4-2-1-2-4--
G|--2-2-2-----2-2-2------2-2-2-------2-2-2---=====-0-2-3----------------
D|--0-0-0-----0-0-0------0-0-0-------0-0-0---0-2-3----------------------



VERSE TWO
d|--------------------------------------------------------------------
A|--------------------------------------------------------------------
F|-----------------------------pm-------------------------------------
C|-----------------------------=====----=====----=====-=====----------
G|-1--------3----2---1----2----1-1-1-2--1-1-1-2--1-1-1-2-1-0-2-2------
D|--------------------------------------------------------------------



VERSE TWO
d|---------------------------------------------------------------------------
A|---------------------------------------------------------------------------
F|---------------------------------------------------------------------------
C|----pm----------------------------------------------=============--=======-
G|----=============--=======--=============--=======--3-3-3-3-3-3-3--3-3-3-3-
D|----6-6-6-6-6-6-6--6-6-6-6--2-2-2-2-2-2-2--2-2-2-2-------------------------




VERSE TWO
d|------------------------------------------------------------------------
A|------------------------------------------------------------------------
F|------------------------------------------------------------------------
C|-pm----------------------------------------------=============--=======-
G|-=============--=======--=============--=======--5-5-5-5-5-5-5--5-5-5-5-
D|-0-0-0-0-0-0-0--0-0-0-0--2-2-2-2-2-2-2--2-2-2-2-------------------------



VERSE 2 END, GUITAR ONE
d|------------------------------------------------------------------------------
A|------------------------------------------------------------------------------
F|------------------------------------------------------------------------------
C|-pm---------------------------------=====--------=====--------===========-----
G|-=====----=====----=====-=====------8-8-8-9-9-9--8-8-8-9-9-9--8-8-8-9-8-7-9-9-
D|-6-6-6-7--6-6-6-7--6-6-6-7-6-5-7-7--------------------------------------------




VERSE 2 END, GUITAR TWO
d|------------------------------------------------------------------------
A|------------------------------------------------------------------------
F|------------------------------------------------------------------------
C|-pm---------------------------------------------------------------------
G|-=====----=====----=====-=====-------=====----=====----=====-=====------
D|-6-6-6-7--6-6-6-7--6-6-6-7-6-5-7-7---6-6-6-7--6-6-6-7--6-6-6-7-6-5-7-7--




CHORUS, GUITAR ONE
d|--------------------------------------------------------------------------------------------
A|--------------------------------------------------------------------------------------------
F|--------------------------------------------------------------------------------------------
C|--------3-----------5----------3----------5--------3--------5-------3-------5---------------
G|--------1-----------3----------1----------3--------1--------3-------1-------3---------------
D|--0------------0----------0----------0----------0-------0-------0-------0-------------------



CHORUS, GUITAR ONE
d|--------------------------------------------------------------------
A|--------------------------------------------------------------------
F|--------------------------------------------------------------------
C|---pm---------------------------------------------------------------
G|---================================================-----------------
D|---2-2-2-2-2-2-2-2-2-2-2-2--1-1-1-1-1-1-1-1-1-1-1-1-----------------




CHORUS, GUITAR TWO
d|--------------------------------------------------------------------------------------------
A|-------------------------------------------------------------------PM-----------------------
F|-------------------------------------------------------------------=======================--
C|-----5-4--------5-4---5------5-4--------5-4-------5-4---5----5-4---4-4-4-4-4-4-4-4-4-4-4-4--
G|---------7----------7------------7----------7---------7----------7--------------------------
D|---0---------0------------0----------0---------0-----------0--------------------------------




CHORUS, GUITAR TWO
d|---------------------------
A|-PM------------------------
F|-=======================---
C|-3-3-3-3-3-3-3-3-3-3-3-3---
G|---------------------------
D|---------------------------




BOTH GUITARS
d||------------------------------------------||---------------------------------------
A||:----------------------------------------:||---------------------------------------
F||----------8--------8-------8-----8---8----||---------------------------------------
C||----------x--------x-------x-----x---x----||--2------------------------------------
G||:---------6--------6-------6-----6---6---:||--2------------------------------------
D||---0-0-0----0-0-0----0-0-0---0-0----------||--0------------------------------------




   

Ghost - Prime Mover - ноты

(включить)
Другие материалы по этой песне:

https://primanota.ru/ghost/prime-mover-chords.htm

Привет, гитарист!

Тебе подарок от сайта PrimaNota.ru

Забрать подарок
ВАМ ПОДАРКИ ОТ ПРОЕКТА
"ГИТАРНАЯ РЕВОЛЮЦИЯ"