» 
 » 
Ritual



Ghost - Ritual - табы

Чайковский в рок-аранжировке! Очень необычно, послушай!
  • аккорды, текст
  • gtp-табы
-------------------------------------------------------------------------------
                             Ritual (End Solo) - Ghost
-------------------------------------------------------------------------------
Tabbed by:Austin Spencer. 
E-mail:austinspencer.36@gmail.com
Its pretty much right. This is just what I got from it, and there's probably some mistakes in it, but it seems
to fit and there weren't any normal tabs that had the end solo, so here you go.
If theres anything big you notice just put it as a correction.

Tuning:
d|---------------------------------------------------------------------------|
A|---------------------------------------------------------------------------|
F|------12b14rb14--10-9-10--7----10b11rb10-9-7------10-10-10-9-7-------------|
C|-------------------------------------------7-8----------------10-7--10-12--|
G|---------------------------------------------------------------------------|
D|---------------------------------------------------------------------------|

d|-----------------------------------------------------12h13p12-----12-12----|
A|---------------------------------13-10--13-15--13-15-----------15----------|
F|--9b10rb9----10-9----------14-12-------------------------------------------|
C|-----------------12-10-9---------------------------------------------------|
G|---------------------------------------------------------------------------|
D|---------------------------------------------------------------------------|

d|--12p10---12p10---12-13-12p10---12p10---10-12--13p10---13p10---13p10-------|
A|-------10------10------------10------10-------------11------11-------------|
F|---------------------------------------------------------------------------|
C|---------------------------------------------------------------------------|
G|---------------------------------------------------------------------------|
D|---------------------------------------------------------------------------|

d|--17-13-10---15-13-12------------------------------------------------------|
A|-----------------------12-13-12h13p12----12--------------------------------|
F|--------------------------------------12-----12-12h14--14b15rb14-12-14-----|
C|---------------------------------------------------------------------------|
G|---------------------------------------------------------------------------|
D|---------------------------------------------------------------------------|

d|---------------------------------------------------------------------------|
A|-3--5--6--13--10---3--5--6--8--5---8--6--5--1--3---3--5--6--8--10----------|
F|---------------------------------------------------------------------------|
C|---------------------------------------------------------------------------|
G|---------------------------------------------------------------------------|
D|---------------------------------------------------------------------------|
************************************

| /   slide up
| \   slide down
| h   hammer-on
| p   pull-off
| ~   vibrato
| +   harmonic
| x   Mute note
| b   Bend
| pb  Pre-bend
| br  Bend release
| pbr Pre-bend release
| brb Bend release bend

************************************   

Ghost - Ritual - ноты

(включить)
Другие композиции этого автора:
Другие материалы по этой песне:

https://primanota.ru/ghost/ritual-chords.htm

Привет, гитарист!

Тебе подарок от сайта PrimaNota.ru

Забрать подарок
ВАМ ПОДАРКИ ОТ ПРОЕКТА
"ГИТАРНАЯ РЕВОЛЮЦИЯ"