Войти:  Facebook Google Twitter Vk Yandex Mail.ru
PrimaNota.ru - самый крупный в мире бесплатный архив песенных текстов, аккордов, табулатур и нот


Filter - American Clichee - бас-таба

Печатать
ViraMusic 2019 в Петербурге 4 апреля 2019! Скидка 10%!

American Clichee

  • аккорды, текст

You've got to use the Drop D Tuning
These Tabs are 100% right!


Verse - 0:05
 G|----------------|----------------|
 D|----------------|----------------|
 A|----------------|----------------|
 D|0-3-5-0-3-0-0-0-|0-3-5-0-5-6-6-6-| x13




Chorus - 0:46
 G|----------------------------------------------------------------|
 D|----------------------------------------------------------------|
 A|----------------------------------------------------------------|
 D|-0~----------------------6~------5~------3~---------------------| x4




Verse2 - 1:14
 G|----------------|----------------|
 D|----------------|----------------|
 A|----------------|----------------|
 D|0-3-5-0-3-0-0-0-|0-3-5-0-5-6-6-6-| x11



Chorus2 - 1:48
 G|----------------------------------------------------------------|
 D|----------------------------------------------------------------|
 A|----------------------------------------------------------------|
 D|-0~----------------------6~------5~------3~---------------------| x4


Bridge - 2:12
 G|----------------------------------------------------------------|
 D|----------------------------------------------------------------|
 A|----------------------------------------------------------------|
 D|-5-5-5-5-5-5-5-5-5-5-5-5-5-5-5-5-6-6-6-6-6-6-6-6-6-6-6-6-6-6-6-6| x3

 G|----------------------------------------------------------------|
 D|----------------------------------------------------------------|
 A|----------------------------------------------------------------|
 D|-5-5-5-5-5-5-5-5-5-5-5-5-5-5-5-5-4~--------------3~-------2~----| x3


Ending - 2:37
 G|----------------|----------------|
 D|----------------|----------------|
 A|----------------|----------------|
 D|0-3-5-0-3-0-0-0-|0-3-5-0-5-6-6-6-| x16   
https://primanota.ru/filter/american-clichee-chords.htm

Привет, гитарист!

Тебе подарок от сайта PrimaNota.ru

Забрать подарок
ВАМ ПОДАРКИ ОТ ПРОЕКТА
"ГИТАРНАЯ РЕВОЛЮЦИЯ"