Войти:  Facebook Google Twitter Vk Yandex Mail.ru
PrimaNota.ru - самый крупный в мире бесплатный архив песенных текстов, аккордов, табулатур и нот


Ella Fitzgerald - Bewitched Bothered And Bewildered - аккорды, текст

Печатать
ViraMusic 2019 в Петербурге 4 апреля 2019! Скидка 10%!

Bewitched Bothered And Bewildered

  • аккорды, текст
Тональность: 
0
Проще! Аппликатуры

Авторы музыки: Richard Rodgers
Авторы текста: Lorenz Hart
Bewitched Bothered And Bewildered
Ella Fitzgerald
-------------------------------------------------------------------------------
            Bewitched, bothered, and bewildered      Rogers and Hart 
---------------------------------------------------------------- 1940---------------
Tabbed by: Mike Lydiat
E-mail: mike@docsworkshop.co.uk
Tuning:EADGBE

You can hear these chords on this Sound Cloud page:
https://soundcloud.com/toffee-music/sets/tapas-and-taliots/

GUITAR INTRO + CHORD SHAPES                   VOCAL INTRO CHORD SHAPES
  C#m7     Bm7      F6b5  Fdim7  Ddim    D6 A7M   Gdim C#m7 Bm7 F6b5 Fdim7 Ddim 
e|4 - 7 4 |2 - - - |x  -  x  -  |x - - -|2--4-----3-----4-----2--x----x-----x---|
B|5 - - - |3 - - - |x  -  2  -  |3 - - -|0--5-----2-----5-----3--x----2-----3---|
G|4 - - - |2 - 3 - |2  -  0  -  |2 - - -|2--6-----3-----4-----2--2----0-----2---|
D|6 - - - |4 4 - - |0  -  2  -  |3 - - -|0--7-----2-----6-----4--0----2-----3---|
A|4 4 - - |2 - - - |2  -  1  -  |2 - - -|x--x-----x-----4-----2--2----1-----2---|
E|4 - - - |2 - - - |1  -  x  -  |x - - -|x--x-----x-----4-----2--1----x-----x---|
VERSE CHORD SHAPES                                
   A Edim Bm7 Gdim7 C#7 D7M   Baug A  F#m E E7sus4 Dm6 D7M   F#m E9 
e|-0-0----x---x------3---x-----x-----5--2---0-0------x---2-----2---8-|
B|-2-2----3---4------5---7-----9-----5--2---0-3------0---2-----2---8-|
G|-2-0----2---2------3---6-----6-----6--2---1-2------2---2-----2---8-|
D|-2-2----4---4------5---7-----7-----7--4---2-0------0---4-----4---7-|
A|-0-1----2---3------3---5-----6-----7--4---2-2------2---5-----4---8-|
E|-x-x----2---x------3---x-----x-----5--2---0-x------1---x-----x---8-|
CHORUS CHORD SHAPES                                           OUTRO CHORDS
   Bm7 A7sus4   F#m7 Bdim F# Bm7 C#m7 B7sus4 F6b5 Fdim7 Ddim  A A A A F6b5 Fdim7 Ddim A#7M   A7M  
e|-2---0--------2----x----2--2---4----5------x----x-----0---|-5-5-5-5-x----x-----x----0------0---|
B|-3---3--------2----2----2--3---5----5------x----2-----3---|-2-2-2-2-x----2-----3----3------2---|
G|-2---0--------2----3----3--2---4----4------2----0-----2---|-2-2-2-2-2----0-----2----2------1---|
D|-4---3--------2----2----4--4---6----4------0----2-----3---|-2-2-2-2-0----2-----3----3------2---|
A|-2---0--------4----x----4--2---4----x------2----1-----2---|-0-0-0-x-2----1-----2----1------0---|
E|-2---x--------2----x----2--2---4----x------1----x-----x---|-x-4-3-2-1----x-----x----x------x---|
-


[INTRO]
D6               A7M              D6             A7M      Gdim
She's a fool and don't I know it, But a fool can have her charms.
D6              C#m7             Bm7            F6b5  Fdim7 Ddim   
I'm in love and don't I show it, Like a babe in arms.
D6                  A7M            D6              A7M     Gdim
Love's the same old sad sensation, Lately I've not slept a wink, 
D6                   C#m7        Bm7           F6b5  Fdim7 Ddim 
Since this half-pint imitation's Put me on the blink.


[VERSE 1]
E   A         Edim7    Bm7         Gdim7
I'm wild again,      beguiled again  
  A          C#7        D7M       Baug
A simpering, whimpering child again 
  A        F#m             E        A  E7sus4 Dm6 D7M   F#m  
Bewitched, bothered, and bewildered am I
E A           Edim7  Bm7          Gdim7 
I couldn't sleep and wouldn't sleep 
     A             C#7       D7M          Baug
Then love came and told me I shouldn't sleep   
  A        F#m             E        A  D7M   F#aug Gdim F#
Bewitched, bothered, and bewildered am I


[CHORUS]
Bm7                          A7sus4/f  F#m7                Bdim F#
Lost my heart but what of it?          She is cold, I agree 
Bm7                                      C#m7    B7sus4  F6b5  Fdim7 Ddim 
She can laugh but I love it Although the laugh's on      me 


[VERSE 2]
E    A         Edim7    Bm7          Gdim7
I'll sing to her, bring Spring to her 
    A            C#7        D7M          Baug
And long for the day when I cling to her 
  A        F#m             E  E9    E  A  see OUTRO CHORDS above
Bewitched, bothered, and bewildered am I 
   
Другие материалы по этой песне:
  • Аккорды, текст

https://primanota.ru/ella-fitzgerald/bewitched-bothered-and-bewildered-chords.htm

Привет, гитарист!

Тебе подарок от сайта PrimaNota.ru

Забрать подарок
ВАМ ПОДАРКИ ОТ ПРОЕКТА
"ГИТАРНАЯ РЕВОЛЮЦИЯ"